0
SECTION
2
HEADER
9
$MEASUREMENT
70
0
0
ENDSEC
0
SECTION
2
TABLES
0
ENDSEC
0
SECTION
2
BLOCKS
0
ENDSEC
0
SECTION
2
ENTITIES
0
LINE
100
AcDbEntity
62
7
8
HANDALSTONE_pc116
100
AcDbLine
10
26.484
20
12.24998
30
0.0
11
26.484
21
0.0007
31
0.0
0
LINE
100
AcDbEntity
62
7
8
HANDALSTONE_pc116
100
AcDbLine
10
2.5
20
12.24998
30
0.0
11
50.5
21
12.24998
31
0.0
0
LINE
100
AcDbEntity
62
7
8
HANDALSTONE_pc116
100
AcDbLine
10
0
20
18.24999
30
0.0
11
53
21
18.24999
31
0.0
0
LINE
100
AcDbEntity
62
7
8
HANDALSTONE_pc116
100
AcDbLine
10
26.516
20
9.64953
30
0.0
11
49.4953
21
9.64953
31
0.0
0
LINE
100
AcDbEntity
62
7
8
HANDALSTONE_pc116
100
AcDbLine
10
8.8662
20
2.5044
30
0.0
11
26.484
21
2.5044
31
0.0
0
LINE
100
AcDbEntity
62
7
8
HANDALSTONE_pc116
100
AcDbLine
10
3.5047
20
9.64953
30
0.0
11
26.484
21
9.64953
31
0.0
0
LINE
100
AcDbEntity
62
7
8
HANDALSTONE_pc116
100
AcDbLine
10
0.0772
20
15.24999
30
0.0
11
52.9228
21
15.24999
31
0.0
0
LINE
100
AcDbEntity
62
7
8
HANDALSTONE_pc116
100
AcDbLine
10
8.4431
20
4.35145
30
0.0
11
26.484
21
4.35145
31
0.0
0
LINE
100
AcDbEntity
62
7
8
HANDALSTONE_pc116
100
AcDbLine
10
26.516
20
2.5044
30
0.0
11
44.1338
21
2.5044
31
0.0
0
LINE
100
AcDbEntity
62
7
8
HANDALSTONE_pc116
100
AcDbLine
10
26.516
20
4.35145
30
0.0
11
44.5569
21
4.35145
31
0.0
0
LINE
100
AcDbEntity
62
7
8
HANDALSTONE_pc116
100
AcDbLine
10
1.79046
20
14.47046
30
0.0
11
1.8314
21
14.4215
31
0.0
0
LINE
100
AcDbEntity
62
7
8
HANDALSTONE_pc116
100
AcDbLine
10
1.8314
20
14.42149
30
0.0
11
1.8712
21
14.3712
31
0.0
0
LINE
100
AcDbEntity
62
7
8
HANDALSTONE_pc116
100
AcDbLine
10
1.8712
20
14.3712
30
0.0
11
1.9098
21
14.3197
31
0.0
0
LINE
100
AcDbEntity
62
7
8
HANDALSTONE_pc116
100
AcDbLine
10
1.9098
20
14.3197
30
0.0
11
1.9472
21
14.267
31
0.0
0
LINE
100
AcDbEntity
62
7
8
HANDALSTONE_pc116
100
AcDbLine
10
1.9472
20
14.267
30
0.0
11
1.9833
21
14.21315
31
0.0
0
LINE
100
AcDbEntity
62
7
8
HANDALSTONE_pc116
100
AcDbLine
10
1.9833
20
14.21315
30
0.0
11
2.0182
21
14.15814
31
0.0
0
LINE
100
AcDbEntity
62
7
8
HANDALSTONE_pc116
100
AcDbLine
10
2.0182
20
14.15814
30
0.0
11
2.0519
21
14.10202
31
0.0
0
LINE
100
AcDbEntity
62
7
8
HANDALSTONE_pc116
100
AcDbLine
10
2.0519
20
14.10202
30
0.0
11
2.0844
21
14.04482
31
0.0
0
LINE
100
AcDbEntity
62
7
8
HANDALSTONE_pc116
100
AcDbLine
10
2.0844
20
14.04482
30
0.0
11
2.1157
21
13.98653
31
0.0
0
LINE
100
AcDbEntity
62
7
8
HANDALSTONE_pc116
100
AcDbLine
10
2.1157
20
13.98653
30
0.0
11
2.1458
21
13.92719
31
0.0
0
LINE
100
AcDbEntity
62
7
8
HANDALSTONE_pc116
100
AcDbLine
10
2.1458
20
13.92719
30
0.0
11
2.1746
21
13.86682
31
0.0
0
LINE
100
AcDbEntity
62
7
8
HANDALSTONE_pc116
100
AcDbLine
10
2.1746
20
13.86682
30
0.0
11
2.2023
21
13.80547
31
0.0
0
LINE
100
AcDbEntity
62
7
8
HANDALSTONE_pc116
100
AcDbLine
10
2.2023
20
13.80547
30
0.0
11
2.2287
21
13.74313
31
0.0
0
LINE
100
AcDbEntity
62
7
8
HANDALSTONE_pc116
100
AcDbLine
10
2.2287
20
13.74313
30
0.0
11
2.2538
21
13.67984
31
0.0
0
LINE
100
AcDbEntity
62
7
8
HANDALSTONE_pc116
100
AcDbLine
10
2.2538
20
13.67984
30
0.0
11
2.2778
21
13.61562
31
0.0
0
LINE
100
AcDbEntity
62
7
8
HANDALSTONE_pc116
100
AcDbLine
10
2.2778
20
13.61562
30
0.0
11
2.3005
21
13.55049
31
0.0
0
LINE
100
AcDbEntity
62
7
8
HANDALSTONE_pc116
100
AcDbLine
10
2.3005
20
13.55049
30
0.0
11
2.3221
21
13.48447
31
0.0
0
LINE
100
AcDbEntity
62
7
8
HANDALSTONE_pc116
100
AcDbLine
10
2.3221
20
13.48447
30
0.0
11
2.3423
21
13.4176
31
0.0
0
LINE
100
AcDbEntity
62
7
8
HANDALSTONE_pc116
100
AcDbLine
10
2.3423
20
13.4176
30
0.0
11
2.3614
21
13.34988
31
0.0
0
LINE
100
AcDbEntity
62
7
8
HANDALSTONE_pc116
100
AcDbLine
10
2.3614
20
13.34988
30
0.0
11
2.3792
21
13.28137
31
0.0
0
LINE
100
AcDbEntity
62
7
8
HANDALSTONE_pc116
100
AcDbLine
10
2.3792
20
13.28137
30
0.0
11
2.3959
21
13.21207
31
0.0
0
LINE
100
AcDbEntity
62
7
8
HANDALSTONE_pc116
100
AcDbLine
10
2.3959
20
13.21207
30
0.0
11
2.4113
21
13.14198
31
0.0
0
LINE
100
AcDbEntity
62
7
8
HANDALSTONE_pc116
100
AcDbLine
10
2.4113
20
13.14198
30
0.0
11
2.4254
21
13.07117
31
0.0
0
LINE
100
AcDbEntity
62
7
8
HANDALSTONE_pc116
100
AcDbLine
10
2.4254
20
13.07117
30
0.0
11
2.4384
21
12.99963
31
0.0
0
LINE
100
AcDbEntity
62
7
8
HANDALSTONE_pc116
100
AcDbLine
10
2.4384
20
12.99963
30
0.0
11
2.4501
21
12.9274
31
0.0
0
LINE
100
AcDbEntity
62
7
8
HANDALSTONE_pc116
100
AcDbLine
10
2.4501
20
12.9274
30
0.0
11
2.4605
21
12.85451
31
0.0
0
LINE
100
AcDbEntity
62
7
8
HANDALSTONE_pc116
100
AcDbLine
10
2.4605
20
12.85451
30
0.0
11
2.4698
21
12.78096
31
0.0
0
LINE
100
AcDbEntity
62
7
8
HANDALSTONE_pc116
100
AcDbLine
10
2.4698
20
12.78096
30
0.0
11
2.4778
21
12.70679
31
0.0
0
LINE
100
AcDbEntity
62
7
8
HANDALSTONE_pc116
100
AcDbLine
10
2.4778
20
12.70679
30
0.0
11
2.4846
21
12.63202
31
0.0
0
LINE
100
AcDbEntity
62
7
8
HANDALSTONE_pc116
100
AcDbLine
10
2.4846
20
12.63202
30
0.0
11
2.4901
21
12.55669
31
0.0
0
LINE
100
AcDbEntity
62
7
8
HANDALSTONE_pc116
100
AcDbLine
10
2.4901
20
12.55669
30
0.0
11
2.4944
21
12.48077
31
0.0
0
LINE
100
AcDbEntity
62
7
8
HANDALSTONE_pc116
100
AcDbLine
10
2.4944
20
12.48077
30
0.0
11
2.4975
21
12.40434
31
0.0
0
LINE
100
AcDbEntity
62
7
8
HANDALSTONE_pc116
100
AcDbLine
10
2.4975
20
12.40434
30
0.0
11
2.4994
21
12.32741
31
0.0
0
LINE
100
AcDbEntity
62
7
8
HANDALSTONE_pc116
100
AcDbLine
10
2.4994
20
12.32741
30
0.0
11
2.5
21
12.24998
31
0.0
0
LINE
100
AcDbEntity
62
7
8
HANDALSTONE_pc116
100
AcDbLine
10
2.5
20
12.24998
30
0.0
11
3.3998
21
9.75325
31
0.0
0
LINE
100
AcDbEntity
62
7
8
HANDALSTONE_pc116
100
AcDbLine
10
3.3998
20
9.75325
30
0.0
11
3.4068
21
9.73549
31
0.0
0
LINE
100
AcDbEntity
62
7
8
HANDALSTONE_pc116
100
AcDbLine
10
3.4068
20
9.73549
30
0.0
11
3.4165
21
9.71773
31
0.0
0
LINE
100
AcDbEntity
62
7
8
HANDALSTONE_pc116
100
AcDbLine
10
3.4165
20
9.71773
30
0.0
11
3.4287
21
9.70064
31
0.0
0
LINE
100
AcDbEntity
62
7
8
HANDALSTONE_pc116
100
AcDbLine
10
3.4287
20
9.70064
30
0.0
11
3.4425
21
9.68492
31
0.0
0
LINE
100
AcDbEntity
62
7
8
HANDALSTONE_pc116
100
AcDbLine
10
3.4425
20
9.68492
30
0.0
11
3.4577
21
9.67126
31
0.0
0
LINE
100
AcDbEntity
62
7
8
HANDALSTONE_pc116
100
AcDbLine
10
3.4577
20
9.67126
30
0.0
11
3.4734
21
9.66035
31
0.0
0
LINE
100
AcDbEntity
62
7
8
HANDALSTONE_pc116
100
AcDbLine
10
3.4734
20
9.66035
30
0.0
11
3.4814
21
9.65614
31
0.0
0
LINE
100
AcDbEntity
62
7
8
HANDALSTONE_pc116
100
AcDbLine
10
3.4814
20
9.65614
30
0.0
11
3.4893
21
9.65289
31
0.0
0
LINE
100
AcDbEntity
62
7
8
HANDALSTONE_pc116
100
AcDbLine
10
3.4893
20
9.65289
30
0.0
11
3.4971
21
9.65065
31
0.0
0
LINE
100
AcDbEntity
62
7
8
HANDALSTONE_pc116
100
AcDbLine
10
3.4971
20
9.65065
30
0.0
11
3.5047
21
9.64954
31
0.0
0
LINE
100
AcDbEntity
62
7
8
HANDALSTONE_pc116
100
AcDbLine
10
3.5047
20
9.64954
30
0.0
11
3.572
21
9.64348
31
0.0
0
LINE
100
AcDbEntity
62
7
8
HANDALSTONE_pc116
100
AcDbLine
10
3.572
20
9.64348
30
0.0
11
3.6447
21
9.63417
31
0.0
0
LINE
100
AcDbEntity
62
7
8
HANDALSTONE_pc116
100
AcDbLine
10
3.6447
20
9.63417
30
0.0
11
3.7224
21
9.62146
31
0.0
0
LINE
100
AcDbEntity
62
7
8
HANDALSTONE_pc116
100
AcDbLine
10
3.7224
20
9.62146
30
0.0
11
3.8046
21
9.60515
31
0.0
0
LINE
100
AcDbEntity
62
7
8
HANDALSTONE_pc116
100
AcDbLine
10
3.8046
20
9.60515
30
0.0
11
3.8909
21
9.58507
31
0.0
0
LINE
100
AcDbEntity
62
7
8
HANDALSTONE_pc116
100
AcDbLine
10
3.8909
20
9.58507
30
0.0
11
3.9355
21
9.57356
31
0.0
0
LINE
100
AcDbEntity
62
7
8
HANDALSTONE_pc116
100
AcDbLine
10
3.9355
20
9.57356
30
0.0
11
3.9808
21
9.56105
31
0.0
0
LINE
100
AcDbEntity
62
7
8
HANDALSTONE_pc116
100
AcDbLine
10
3.9808
20
9.56105
30
0.0
11
4.027
21
9.54752
31
0.0
0
LINE
100
AcDbEntity
62
7
8
HANDALSTONE_pc116
100
AcDbLine
10
4.027
20
9.54752
30
0.0
11
4.0739
21
9.53291
31
0.0
0
LINE
100
AcDbEntity
62
7
8
HANDALSTONE_pc116
100
AcDbLine
10
4.0739
20
9.53291
30
0.0
11
4.1215
21
9.51726
31
0.0
0
LINE
100
AcDbEntity
62
7
8
HANDALSTONE_pc116
100
AcDbLine
10
4.1215
20
9.51726
30
0.0
11
4.1698
21
9.50049
31
0.0
0
LINE
100
AcDbEntity
62
7
8
HANDALSTONE_pc116
100
AcDbLine
10
4.1698
20
9.50049
30
0.0
11
4.2186
21
9.4826
31
0.0
0
LINE
100
AcDbEntity
62
7
8
HANDALSTONE_pc116
100
AcDbLine
10
4.2186
20
9.4826
30
0.0
11
4.2679
21
9.46359
31
0.0
0
LINE
100
AcDbEntity
62
7
8
HANDALSTONE_pc116
100
AcDbLine
10
4.2679
20
9.46359
30
0.0
11
4.3176
21
9.44341
31
0.0
0
LINE
100
AcDbEntity
62
7
8
HANDALSTONE_pc116
100
AcDbLine
10
4.3176
20
9.44341
30
0.0
11
4.3678
21
9.42204
31
0.0
0
LINE
100
AcDbEntity
62
7
8
HANDALSTONE_pc116
100
AcDbLine
10
4.3678
20
9.42204
30
0.0
11
4.4183
21
9.39948
31
0.0
0
LINE
100
AcDbEntity
62
7
8
HANDALSTONE_pc116
100
AcDbLine
10
4.4183
20
9.39948
30
0.0
11
4.4691
21
9.37569
31
0.0
0
LINE
100
AcDbEntity
62
7
8
HANDALSTONE_pc116
100
AcDbLine
10
4.4691
20
9.37569
30
0.0
11
4.5202
21
9.35063
31
0.0
0
LINE
100
AcDbEntity
62
7
8
HANDALSTONE_pc116
100
AcDbLine
10
4.5202
20
9.35063
30
0.0
11
4.5714
21
9.32433
31
0.0
0
LINE
100
AcDbEntity
62
7
8
HANDALSTONE_pc116
100
AcDbLine
10
4.5714
20
9.32433
30
0.0
11
4.6227
21
9.29671
31
0.0
0
LINE
100
AcDbEntity
62
7
8
HANDALSTONE_pc116
100
AcDbLine
10
4.6227
20
9.29671
30
0.0
11
4.6742
21
9.26778
31
0.0
0
LINE
100
AcDbEntity
62
7
8
HANDALSTONE_pc116
100
AcDbLine
10
4.6742
20
9.26778
30
0.0
11
4.7256
21
9.23752
31
0.0
0
LINE
100
AcDbEntity
62
7
8
HANDALSTONE_pc116
100
AcDbLine
10
4.7256
20
9.23752
30
0.0
11
4.7769
21
9.2059
31
0.0
0
LINE
100
AcDbEntity
62
7
8
HANDALSTONE_pc116
100
AcDbLine
10
4.7769
20
9.2059
30
0.0
11
4.8282
21
9.1729
31
0.0
0
LINE
100
AcDbEntity
62
7
8
HANDALSTONE_pc116
100
AcDbLine
10
4.8282
20
9.1729
30
0.0
11
4.8793
21
9.13849
31
0.0
0
LINE
100
AcDbEntity
62
7
8
HANDALSTONE_pc116
100
AcDbLine
10
4.8793
20
9.13849
30
0.0
11
4.9302
21
9.10265
31
0.0
0
LINE
100
AcDbEntity
62
7
8
HANDALSTONE_pc116
100
AcDbLine
10
4.9302
20
9.10265
30
0.0
11
4.9808
21
9.06537
31
0.0
0
LINE
100
AcDbEntity
62
7
8
HANDALSTONE_pc116
100
AcDbLine
10
4.9808
20
9.06537
30
0.0
11
5.0311
21
9.02663
31
0.0
0
LINE
100
AcDbEntity
62
7
8
HANDALSTONE_pc116
100
AcDbLine
10
5.0311
20
9.02663
30
0.0
11
5.0811
21
8.98637
31
0.0
0
LINE
100
AcDbEntity
62
7
8
HANDALSTONE_pc116
100
AcDbLine
10
5.0811
20
8.98637
30
0.0
11
5.1305
21
8.94463
31
0.0
0
LINE
100
AcDbEntity
62
7
8
HANDALSTONE_pc116
100
AcDbLine
10
5.1305
20
8.94463
30
0.0
11
5.1795
21
8.90134
31
0.0
0
LINE
100
AcDbEntity
62
7
8
HANDALSTONE_pc116
100
AcDbLine
10
5.1795
20
8.90134
30
0.0
11
5.228
21
8.85649
31
0.0
0
LINE
100
AcDbEntity
62
7
8
HANDALSTONE_pc116
100
AcDbLine
10
5.228
20
8.85649
30
0.0
11
5.2758
21
8.81006
31
0.0
0
LINE
100
AcDbEntity
62
7
8
HANDALSTONE_pc116
100
AcDbLine
10
5.2758
20
8.81006
30
0.0
11
5.323
21
8.76204
31
0.0
0
LINE
100
AcDbEntity
62
7
8
HANDALSTONE_pc116
100
AcDbLine
10
5.323
20
8.76204
30
0.0
11
5.3694
21
8.71239
31
0.0
0
LINE
100
AcDbEntity
62
7
8
HANDALSTONE_pc116
100
AcDbLine
10
5.3694
20
8.71239
30
0.0
11
5.4151
21
8.66109
31
0.0
0
LINE
100
AcDbEntity
62
7
8
HANDALSTONE_pc116
100
AcDbLine
10
5.4151
20
8.66109
30
0.0
11
5.4599
21
8.60812
31
0.0
0
LINE
100
AcDbEntity
62
7
8
HANDALSTONE_pc116
100
AcDbLine
10
5.4599
20
8.60812
30
0.0
11
5.5039
21
8.55347
31
0.0
0
LINE
100
AcDbEntity
62
7
8
HANDALSTONE_pc116
100
AcDbLine
10
5.5039
20
8.55347
30
0.0
11
5.5469
21
8.4971
31
0.0
0
LINE
100
AcDbEntity
62
7
8
HANDALSTONE_pc116
100
AcDbLine
10
5.5469
20
8.4971
30
0.0
11
5.5889
21
8.43901
31
0.0
0
LINE
100
AcDbEntity
62
7
8
HANDALSTONE_pc116
100
AcDbLine
10
5.5889
20
8.43901
30
0.0
11
5.6298
21
8.37915
31
0.0
0
LINE
100
AcDbEntity
62
7
8
HANDALSTONE_pc116
100
AcDbLine
10
5.6298
20
8.37915
30
0.0
11
5.6697
21
8.31752
31
0.0
0
LINE
100
AcDbEntity
62
7
8
HANDALSTONE_pc116
100
AcDbLine
10
5.6697
20
8.31752
30
0.0
11
5.7083
21
8.25409
31
0.0
0
LINE
100
AcDbEntity
62
7
8
HANDALSTONE_pc116
100
AcDbLine
10
5.7083
20
8.25409
30
0.0
11
5.7458
21
8.18884
31
0.0
0
LINE
100
AcDbEntity
62
7
8
HANDALSTONE_pc116
100
AcDbLine
10
5.7458
20
8.18884
30
0.0
11
5.782
21
8.12175
31
0.0
0
LINE
100
AcDbEntity
62
7
8
HANDALSTONE_pc116
100
AcDbLine
10
5.782
20
8.12175
30
0.0
11
5.8168
21
8.0528
31
0.0
0
LINE
100
AcDbEntity
62
7
8
HANDALSTONE_pc116
100
AcDbLine
10
5.8168
20
8.0528
30
0.0
11
5.8502
21
7.98195
31
0.0
0
LINE
100
AcDbEntity
62
7
8
HANDALSTONE_pc116
100
AcDbLine
10
5.8502
20
7.98195
30
0.0
11
5.8822
21
7.90919
31
0.0
0
LINE
100
AcDbEntity
62
7
8
HANDALSTONE_pc116
100
AcDbLine
10
5.8822
20
7.90919
30
0.0
11
5.9127
21
7.8345
31
0.0
0
LINE
100
AcDbEntity
62
7
8
HANDALSTONE_pc116
100
AcDbLine
10
5.9127
20
7.8345
30
0.0
11
5.9417
21
7.75787
31
0.0
0
LINE
100
AcDbEntity
62
7
8
HANDALSTONE_pc116
100
AcDbLine
10
5.9417
20
7.75787
30
0.0
11
5.969
21
7.67924
31
0.0
0
LINE
100
AcDbEntity
62
7
8
HANDALSTONE_pc116
100
AcDbLine
10
5.969
20
7.67924
30
0.0
11
5.9946
21
7.59863
31
0.0
0
LINE
100
AcDbEntity
62
7
8
HANDALSTONE_pc116
100
AcDbLine
10
5.9946
20
7.59863
30
0.0
11
6.0185
21
7.51601
31
0.0
0
LINE
100
AcDbEntity
62
7
8
HANDALSTONE_pc116
100
AcDbLine
10
6.0185
20
7.51601
30
0.0
11
6.0407
21
7.43134
31
0.0
0
LINE
100
AcDbEntity
62
7
8
HANDALSTONE_pc116
100
AcDbLine
10
6.0407
20
7.43134
30
0.0
11
6.061
21
7.3446
31
0.0
0
LINE
100
AcDbEntity
62
7
8
HANDALSTONE_pc116
100
AcDbLine
10
6.061
20
7.3446
30
0.0
11
6.0794
21
7.25578
31
0.0
0
LINE
100
AcDbEntity
62
7
8
HANDALSTONE_pc116
100
AcDbLine
10
6.0794
20
7.25578
30
0.0
11
6.0958
21
7.16486
31
0.0
0
LINE
100
AcDbEntity
62
7
8
HANDALSTONE_pc116
100
AcDbLine
10
6.0958
20
7.16486
30
0.0
11
6.1102
21
7.07179
31
0.0
0
LINE
100
AcDbEntity
62
7
8
HANDALSTONE_pc116
100
AcDbLine
10
6.1102
20
7.07179
30
0.0
11
6.1371
21
6.86525
31
0.0
0
LINE
100
AcDbEntity
62
7
8
HANDALSTONE_pc116
100
AcDbLine
10
6.1371
20
6.86525
30
0.0
11
6.1539
21
6.75713
31
0.0
0
LINE
100
AcDbEntity
62
7
8
HANDALSTONE_pc116
100
AcDbLine
10
6.1539
20
6.75713
30
0.0
11
6.1729
21
6.65218
31
0.0
0
LINE
100
AcDbEntity
62
7
8
HANDALSTONE_pc116
100
AcDbLine
10
6.1729
20
6.65218
30
0.0
11
6.1942
21
6.55035
31
0.0
0
LINE
100
AcDbEntity
62
7
8
HANDALSTONE_pc116
100
AcDbLine
10
6.1942
20
6.55035
30
0.0
11
6.2175
21
6.4516
31
0.0
0
LINE
100
AcDbEntity
62
7
8
HANDALSTONE_pc116
100
AcDbLine
10
6.2175
20
6.4516
30
0.0
11
6.2429
21
6.35588
31
0.0
0
LINE
100
AcDbEntity
62
7
8
HANDALSTONE_pc116
100
AcDbLine
10
6.2429
20
6.35588
30
0.0
11
6.2702
21
6.26314
31
0.0
0
LINE
100
AcDbEntity
62
7
8
HANDALSTONE_pc116
100
AcDbLine
10
6.2702
20
6.26314
30
0.0
11
6.2994
21
6.17332
31
0.0
0
LINE
100
AcDbEntity
62
7
8
HANDALSTONE_pc116
100
AcDbLine
10
6.2994
20
6.17332
30
0.0
11
6.3304
21
6.0864
31
0.0
0
LINE
100
AcDbEntity
62
7
8
HANDALSTONE_pc116
100
AcDbLine
10
6.3304
20
6.0864
30
0.0
11
6.3632
21
6.0023
31
0.0
0
LINE
100
AcDbEntity
62
7
8
HANDALSTONE_pc116
100
AcDbLine
10
6.3632
20
6.0023
30
0.0
11
6.3976
21
5.92097
31
0.0
0
LINE
100
AcDbEntity
62
7
8
HANDALSTONE_pc116
100
AcDbLine
10
6.3976
20
5.92097
30
0.0
11
6.4336
21
5.84241
31
0.0
0
LINE
100
AcDbEntity
62
7
8
HANDALSTONE_pc116
100
AcDbLine
10
6.4336
20
5.84241
30
0.0
11
6.4711
21
5.76651
31
0.0
0
LINE
100
AcDbEntity
62
7
8
HANDALSTONE_pc116
100
AcDbLine
10
6.4711
20
5.76651
30
0.0
11
6.51
21
5.69324
31
0.0
0
LINE
100
AcDbEntity
62
7
8
HANDALSTONE_pc116
100
AcDbLine
10
6.51
20
5.69324
30
0.0
11
6.5502
21
5.62257
31
0.0
0
LINE
100
AcDbEntity
62
7
8
HANDALSTONE_pc116
100
AcDbLine
10
6.5502
20
5.62257
30
0.0
11
6.5918
21
5.55444
31
0.0
0
LINE
100
AcDbEntity
62
7
8
HANDALSTONE_pc116
100
AcDbLine
10
6.5918
20
5.55444
30
0.0
11
6.6346
21
5.4888
31
0.0
0
LINE
100
AcDbEntity
62
7
8
HANDALSTONE_pc116
100
AcDbLine
10
6.6346
20
5.4888
30
0.0
11
6.6784
21
5.4256
31
0.0
0
LINE
100
AcDbEntity
62
7
8
HANDALSTONE_pc116
100
AcDbLine
10
6.6784
20
5.4256
30
0.0
11
6.7234
21
5.36479
31
0.0
0
LINE
100
AcDbEntity
62
7
8
HANDALSTONE_pc116
100
AcDbLine
10
6.7234
20
5.36479
30
0.0
11
6.7693
21
5.30634
31
0.0
0
LINE
100
AcDbEntity
62
7
8
HANDALSTONE_pc116
100
AcDbLine
10
6.7693
20
5.30634
30
0.0
11
6.8161
21
5.25017
31
0.0
0
LINE
100
AcDbEntity
62
7
8
HANDALSTONE_pc116
100
AcDbLine
10
6.8161
20
5.25017
30
0.0
11
6.8638
21
5.19624
31
0.0
0
LINE
100
AcDbEntity
62
7
8
HANDALSTONE_pc116
100
AcDbLine
10
6.8638
20
5.19624
30
0.0
11
6.9122
21
5.14452
31
0.0
0
LINE
100
AcDbEntity
62
7
8
HANDALSTONE_pc116
100
AcDbLine
10
6.9122
20
5.14452
30
0.0
11
6.9613
21
5.09496
31
0.0
0
LINE
100
AcDbEntity
62
7
8
HANDALSTONE_pc116
100
AcDbLine
10
6.9613
20
5.09496
30
0.0
11
7.011
21
5.04747
31
0.0
0
LINE
100
AcDbEntity
62
7
8
HANDALSTONE_pc116
100
AcDbLine
10
7.011
20
5.04747
30
0.0
11
7.0612
21
5.00206
31
0.0
0
LINE
100
AcDbEntity
62
7
8
HANDALSTONE_pc116
100
AcDbLine
10
7.0612
20
5.00206
30
0.0
11
7.1119
21
4.95863
31
0.0
0
LINE
100
AcDbEntity
62
7
8
HANDALSTONE_pc116
100
AcDbLine
10
7.1119
20
4.95863
30
0.0
11
7.163
21
4.91718
31
0.0
0
LINE
100
AcDbEntity
62
7
8
HANDALSTONE_pc116
100
AcDbLine
10
7.163
20
4.91718
30
0.0
11
7.2144
21
4.87761
31
0.0
0
LINE
100
AcDbEntity
62
7
8
HANDALSTONE_pc116
100
AcDbLine
10
7.2144
20
4.87761
30
0.0
11
7.266
21
4.8399
31
0.0
0
LINE
100
AcDbEntity
62
7
8
HANDALSTONE_pc116
100
AcDbLine
10
7.266
20
4.8399
30
0.0
11
7.3177
21
4.80402
31
0.0
0
LINE
100
AcDbEntity
62
7
8
HANDALSTONE_pc116
100
AcDbLine
10
7.3177
20
4.80402
30
0.0
11
7.3696
21
4.76988
31
0.0
0
LINE
100
AcDbEntity
62
7
8
HANDALSTONE_pc116
100
AcDbLine
10
7.3696
20
4.76988
30
0.0
11
7.4214
21
4.73746
31
0.0
0
LINE
100
AcDbEntity
62
7
8
HANDALSTONE_pc116
100
AcDbLine
10
7.4214
20
4.73746
30
0.0
11
7.4732
21
4.7067
31
0.0
0
LINE
100
AcDbEntity
62
7
8
HANDALSTONE_pc116
100
AcDbLine
10
7.4732
20
4.7067
30
0.0
11
7.5248
21
4.67754
31
0.0
0
LINE
100
AcDbEntity
62
7
8
HANDALSTONE_pc116
100
AcDbLine
10
7.5248
20
4.67754
30
0.0
11
7.5762
21
4.64995
31
0.0
0
LINE
100
AcDbEntity
62
7
8
HANDALSTONE_pc116
100
AcDbLine
10
7.5762
20
4.64995
30
0.0
11
7.6274
21
4.62387
31
0.0
0
LINE
100
AcDbEntity
62
7
8
HANDALSTONE_pc116
100
AcDbLine
10
7.6274
20
4.62387
30
0.0
11
7.6781
21
4.59927
31
0.0
0
LINE
100
AcDbEntity
62
7
8
HANDALSTONE_pc116
100
AcDbLine
10
7.6781
20
4.59927
30
0.0
11
7.7284
21
4.57608
31
0.0
0
LINE
100
AcDbEntity
62
7
8
HANDALSTONE_pc116
100
AcDbLine
10
7.7284
20
4.57608
30
0.0
11
7.7782
21
4.55426
31
0.0
0
LINE
100
AcDbEntity
62
7
8
HANDALSTONE_pc116
100
AcDbLine
10
7.7782
20
4.55426
30
0.0
11
7.8274
21
4.53375
31
0.0
0
LINE
100
AcDbEntity
62
7
8
HANDALSTONE_pc116
100
AcDbLine
10
7.8274
20
4.53375
30
0.0
11
7.8759
21
4.51453
31
0.0
0
LINE
100
AcDbEntity
62
7
8
HANDALSTONE_pc116
100
AcDbLine
10
7.8759
20
4.51453
30
0.0
11
7.9237
21
4.49652
31
0.0
0
LINE
100
AcDbEntity
62
7
8
HANDALSTONE_pc116
100
AcDbLine
10
7.9237
20
4.49652
30
0.0
11
7.9707
21
4.47968
31
0.0
0
LINE
100
AcDbEntity
62
7
8
HANDALSTONE_pc116
100
AcDbLine
10
7.9707
20
4.47968
30
0.0
11
8.0619
21
4.44934
31
0.0
0
LINE
100
AcDbEntity
62
7
8
HANDALSTONE_pc116
100
AcDbLine
10
8.0619
20
4.44934
30
0.0
11
8.1488
21
4.42311
31
0.0
0
LINE
100
AcDbEntity
62
7
8
HANDALSTONE_pc116
100
AcDbLine
10
8.1488
20
4.42311
30
0.0
11
8.2311
21
4.40059
31
0.0
0
LINE
100
AcDbEntity
62
7
8
HANDALSTONE_pc116
100
AcDbLine
10
8.2311
20
4.40059
30
0.0
11
8.3079
21
4.38141
31
0.0
0
LINE
100
AcDbEntity
62
7
8
HANDALSTONE_pc116
100
AcDbLine
10
8.3079
20
4.38141
30
0.0
11
8.3788
21
4.36516
31
0.0
0
LINE
100
AcDbEntity
62
7
8
HANDALSTONE_pc116
100
AcDbLine
10
8.3788
20
4.36516
30
0.0
11
8.4431
21
4.35146
31
0.0
0
LINE
100
AcDbEntity
62
7
8
HANDALSTONE_pc116
100
AcDbLine
10
8.4431
20
4.35146
30
0.0
11
8.5495
21
4.33014
31
0.0
0
LINE
100
AcDbEntity
62
7
8
HANDALSTONE_pc116
100
AcDbLine
10
8.5495
20
4.33014
30
0.0
11
8.5905
21
4.32173
31
0.0
0
LINE
100
AcDbEntity
62
7
8
HANDALSTONE_pc116
100
AcDbLine
10
8.5905
20
4.32173
30
0.0
11
8.6225
21
4.31433
31
0.0
0
LINE
100
AcDbEntity
62
7
8
HANDALSTONE_pc116
100
AcDbLine
10
8.6225
20
4.31433
30
0.0
11
8.6635
21
4.30237
31
0.0
0
LINE
100
AcDbEntity
62
7
8
HANDALSTONE_pc116
100
AcDbLine
10
8.6635
20
4.30237
30
0.0
11
8.6814
21
4.29602
31
0.0
0
LINE
100
AcDbEntity
62
7
8
HANDALSTONE_pc116
100
AcDbLine
10
8.6814
20
4.29602
30
0.0
11
8.6976
21
4.2894
31
0.0
0
LINE
100
AcDbEntity
62
7
8
HANDALSTONE_pc116
100
AcDbLine
10
8.6976
20
4.2894
30
0.0
11
8.7122
21
4.28249
31
0.0
0
LINE
100
AcDbEntity
62
7
8
HANDALSTONE_pc116
100
AcDbLine
10
8.7122
20
4.28249
30
0.0
11
8.7252
21
4.27528
31
0.0
0
LINE
100
AcDbEntity
62
7
8
HANDALSTONE_pc116
100
AcDbLine
10
8.7252
20
4.27528
30
0.0
11
8.7367
21
4.26775
31
0.0
0
LINE
100
AcDbEntity
62
7
8
HANDALSTONE_pc116
100
AcDbLine
10
8.7367
20
4.26775
30
0.0
11
8.7467
21
4.25989
31
0.0
0
LINE
100
AcDbEntity
62
7
8
HANDALSTONE_pc116
100
AcDbLine
10
8.7467
20
4.25989
30
0.0
11
8.7553
21
4.25166
31
0.0
0
LINE
100
AcDbEntity
62
7
8
HANDALSTONE_pc116
100
AcDbLine
10
8.7553
20
4.25166
30
0.0
11
8.7625
21
4.24307
31
0.0
0
LINE
100
AcDbEntity
62
7
8
HANDALSTONE_pc116
100
AcDbLine
10
8.7625
20
4.24307
30
0.0
11
8.7684
21
4.2341
31
0.0
0
LINE
100
AcDbEntity
62
7
8
HANDALSTONE_pc116
100
AcDbLine
10
8.7684
20
4.2341
30
0.0
11
8.773
21
4.22472
31
0.0
0
LINE
100
AcDbEntity
62
7
8
HANDALSTONE_pc116
100
AcDbLine
10
8.773
20
4.22472
30
0.0
11
8.7763
21
4.2149
31
0.0
0
LINE
100
AcDbEntity
62
7
8
HANDALSTONE_pc116
100
AcDbLine
10
8.7763
20
4.2149
30
0.0
11
8.7785
21
4.20467
31
0.0
0
LINE
100
AcDbEntity
62
7
8
HANDALSTONE_pc116
100
AcDbLine
10
8.7785
20
4.20467
30
0.0
11
8.7795
21
4.19397
31
0.0
0
LINE
100
AcDbEntity
62
7
8
HANDALSTONE_pc116
100
AcDbLine
10
8.7795
20
4.19397
30
0.0
11
8.7795
21
2.5971
31
0.0
0
LINE
100
AcDbEntity
62
7
8
HANDALSTONE_pc116
100
AcDbLine
10
8.7795
20
2.5971
30
0.0
11
8.78
21
2.5921
31
0.0
0
LINE
100
AcDbEntity
62
7
8
HANDALSTONE_pc116
100
AcDbLine
10
8.78
20
2.5921
30
0.0
11
8.7814
21
2.5873
31
0.0
0
LINE
100
AcDbEntity
62
7
8
HANDALSTONE_pc116
100
AcDbLine
10
8.7814
20
2.5873
30
0.0
11
8.7838
21
2.583
31
0.0
0
LINE
100
AcDbEntity
62
7
8
HANDALSTONE_pc116
100
AcDbLine
10
8.7838
20
2.583
30
0.0
11
8.7872
21
2.5792
31
0.0
0
LINE
100
AcDbEntity
62
7
8
HANDALSTONE_pc116
100
AcDbLine
10
8.7872
20
2.5792
30
0.0
11
8.8662
21
2.5044
31
0.0
0
LINE
100
AcDbEntity
62
7
8
HANDALSTONE_pc116
100
AcDbLine
10
8.8662
20
2.5044
30
0.0
11
8.9536
21
2.4221
31
0.0
0
LINE
100
AcDbEntity
62
7
8
HANDALSTONE_pc116
100
AcDbLine
10
8.9536
20
2.4221
30
0.0
11
9.0475
21
2.3313
31
0.0
0
LINE
100
AcDbEntity
62
7
8
HANDALSTONE_pc116
100
AcDbLine
10
9.0475
20
2.3313
30
0.0
11
9.0963
21
2.2826
31
0.0
0
LINE
100
AcDbEntity
62
7
8
HANDALSTONE_pc116
100
AcDbLine
10
9.0963
20
2.2826
30
0.0
11
9.1461
21
2.2314
31
0.0
0
LINE
100
AcDbEntity
62
7
8
HANDALSTONE_pc116
100
AcDbLine
10
9.1461
20
2.2314
30
0.0
11
9.1966
21
2.1778
31
0.0
0
LINE
100
AcDbEntity
62
7
8
HANDALSTONE_pc116
100
AcDbLine
10
9.1966
20
2.1778
30
0.0
11
9.2475
21
2.1216
31
0.0
0
LINE
100
AcDbEntity
62
7
8
HANDALSTONE_pc116
100
AcDbLine
10
9.2475
20
2.1216
30
0.0
11
9.2987
21
2.0627
31
0.0
0
LINE
100
AcDbEntity
62
7
8
HANDALSTONE_pc116
100
AcDbLine
10
9.2987
20
2.0627
30
0.0
11
9.35
21
2.001
31
0.0
0
LINE
100
AcDbEntity
62
7
8
HANDALSTONE_pc116
100
AcDbLine
10
9.35
20
2.001
30
0.0
11
9.401
21
1.9365
31
0.0
0
LINE
100
AcDbEntity
62
7
8
HANDALSTONE_pc116
100
AcDbLine
10
9.401
20
1.9365
30
0.0
11
9.4516
21
1.869
31
0.0
0
LINE
100
AcDbEntity
62
7
8
HANDALSTONE_pc116
100
AcDbLine
10
9.4516
20
1.869
30
0.0
11
9.5015
21
1.7984
31
0.0
0
LINE
100
AcDbEntity
62
7
8
HANDALSTONE_pc116
100
AcDbLine
10
9.5015
20
1.7984
30
0.0
11
9.5505
21
1.7246
31
0.0
0
LINE
100
AcDbEntity
62
7
8
HANDALSTONE_pc116
100
AcDbLine
10
9.5505
20
1.7246
30
0.0
11
9.5984
21
1.6476
31
0.0
0
LINE
100
AcDbEntity
62
7
8
HANDALSTONE_pc116
100
AcDbLine
10
9.5984
20
1.6476
30
0.0
11
9.6218
21
1.6079
31
0.0
0
LINE
100
AcDbEntity
62
7
8
HANDALSTONE_pc116
100
AcDbLine
10
9.6218
20
1.6079
30
0.0
11
9.6449
21
1.5673
31
0.0
0
LINE
100
AcDbEntity
62
7
8
HANDALSTONE_pc116
100
AcDbLine
10
9.6449
20
1.5673
30
0.0
11
9.6676
21
1.5258
31
0.0
0
LINE
100
AcDbEntity
62
7
8
HANDALSTONE_pc116
100
AcDbLine
10
9.6676
20
1.5258
30
0.0
11
9.6899
21
1.4834
31
0.0
0
LINE
100
AcDbEntity
62
7
8
HANDALSTONE_pc116
100
AcDbLine
10
9.6899
20
1.4834
30
0.0
11
9.7117
21
1.4402
31
0.0
0
LINE
100
AcDbEntity
62
7
8
HANDALSTONE_pc116
100
AcDbLine
10
9.7117
20
1.4402
30
0.0
11
9.733
21
1.3961
31
0.0
0
LINE
100
AcDbEntity
62
7
8
HANDALSTONE_pc116
100
AcDbLine
10
9.733
20
1.3961
30
0.0
11
9.7539
21
1.351
31
0.0
0
LINE
100
AcDbEntity
62
7
8
HANDALSTONE_pc116
100
AcDbLine
10
9.7539
20
1.351
30
0.0
11
9.7742
21
1.305
31
0.0
0
LINE
100
AcDbEntity
62
7
8
HANDALSTONE_pc116
100
AcDbLine
10
9.7742
20
1.305
30
0.0
11
9.7939
21
1.2581
31
0.0
0
LINE
100
AcDbEntity
62
7
8
HANDALSTONE_pc116
100
AcDbLine
10
9.7939
20
1.2581
30
0.0
11
9.813
21
1.2102
31
0.0
0
LINE
100
AcDbEntity
62
7
8
HANDALSTONE_pc116
100
AcDbLine
10
9.813
20
1.2102
30
0.0
11
9.8315
21
1.1614
31
0.0
0
LINE
100
AcDbEntity
62
7
8
HANDALSTONE_pc116
100
AcDbLine
10
9.8315
20
1.1614
30
0.0
11
9.8493
21
1.1116
31
0.0
0
LINE
100
AcDbEntity
62
7
8
HANDALSTONE_pc116
100
AcDbLine
10
9.8493
20
1.1116
30
0.0
11
9.8665
21
1.0608
31
0.0
0
LINE
100
AcDbEntity
62
7
8
HANDALSTONE_pc116
100
AcDbLine
10
9.8665
20
1.0608
30
0.0
11
9.883
21
1.009
31
0.0
0
LINE
100
AcDbEntity
62
7
8
HANDALSTONE_pc116
100
AcDbLine
10
9.883
20
1.009
30
0.0
11
9.8987
21
0.9562
31
0.0
0
LINE
100
AcDbEntity
62
7
8
HANDALSTONE_pc116
100
AcDbLine
10
9.8987
20
0.9562
30
0.0
11
9.9136
21
0.9024
31
0.0
0
LINE
100
AcDbEntity
62
7
8
HANDALSTONE_pc116
100
AcDbLine
10
9.9136
20
0.9024
30
0.0
11
9.9278
21
0.8475
31
0.0
0
LINE
100
AcDbEntity
62
7
8
HANDALSTONE_pc116
100
AcDbLine
10
9.9278
20
0.8475
30
0.0
11
9.9411
21
0.7916
31
0.0
0
LINE
100
AcDbEntity
62
7
8
HANDALSTONE_pc116
100
AcDbLine
10
9.9411
20
0.7916
30
0.0
11
9.9536
21
0.7347
31
0.0
0
LINE
100
AcDbEntity
62
7
8
HANDALSTONE_pc116
100
AcDbLine
10
9.9536
20
0.7347
30
0.0
11
9.9651
21
0.6766
31
0.0
0
LINE
100
AcDbEntity
62
7
8
HANDALSTONE_pc116
100
AcDbLine
10
9.9651
20
0.6766
30
0.0
11
9.9758
21
0.6175
31
0.0
0
LINE
100
AcDbEntity
62
7
8
HANDALSTONE_pc116
100
AcDbLine
10
9.9758
20
0.6175
30
0.0
11
9.9856
21
0.5573
31
0.0
0
LINE
100
AcDbEntity
62
7
8
HANDALSTONE_pc116
100
AcDbLine
10
9.9856
20
0.5573
30
0.0
11
9.9943
21
0.496
31
0.0
0
LINE
100
AcDbEntity
62
7
8
HANDALSTONE_pc116
100
AcDbLine
10
9.9943
20
0.496
30
0.0
11
10.0021
21
0.4335
31
0.0
0
LINE
100
AcDbEntity
62
7
8
HANDALSTONE_pc116
100
AcDbLine
10
10.0021
20
0.4335
30
0.0
11
10.0088
21
0.37
31
0.0
0
LINE
100
AcDbEntity
62
7
8
HANDALSTONE_pc116
100
AcDbLine
10
10.0088
20
0.37
30
0.0
11
10.0145
21
0.3052
31
0.0
0
LINE
100
AcDbEntity
62
7
8
HANDALSTONE_pc116
100
AcDbLine
10
10.0145
20
0.3052
30
0.0
11
10.0191
21
0.2394
31
0.0
0
LINE
100
AcDbEntity
62
7
8
HANDALSTONE_pc116
100
AcDbLine
10
10.0191
20
0.2394
30
0.0
11
10.0227
21
0.1723
31
0.0
0
LINE
100
AcDbEntity
62
7
8
HANDALSTONE_pc116
100
AcDbLine
10
10.0227
20
0.1723
30
0.0
11
10.025
21
0.1041
31
0.0
0
LINE
100
AcDbEntity
62
7
8
HANDALSTONE_pc116
100
AcDbLine
10
10.025
20
0.1041
30
0.0
11
10.0262
21
0.0347
31
0.0
0
LINE
100
AcDbEntity
62
7
8
HANDALSTONE_pc116
100
AcDbLine
10
10.0262
20
0.0347
30
0.0
11
10.027
21
0.0277
31
0.0
0
LINE
100
AcDbEntity
62
7
8
HANDALSTONE_pc116
100
AcDbLine
10
10.027
20
0.0277
30
0.0
11
10.029
21
0.0212
31
0.0
0
LINE
100
AcDbEntity
62
7
8
HANDALSTONE_pc116
100
AcDbLine
10
10.029
20
0.0212
30
0.0
11
10.0323
21
0.0153
31
0.0
0
LINE
100
AcDbEntity
62
7
8
HANDALSTONE_pc116
100
AcDbLine
10
10.0323
20
0.0153
30
0.0
11
10.0366
21
0.0102
31
0.0
0
LINE
100
AcDbEntity
62
7
8
HANDALSTONE_pc116
100
AcDbLine
10
10.0366
20
0.0102
30
0.0
11
10.0417
21
0.0059
31
0.0
0
LINE
100
AcDbEntity
62
7
8
HANDALSTONE_pc116
100
AcDbLine
10
10.0417
20
0.0059
30
0.0
11
10.0477
21
0.0027
31
0.0
0
LINE
100
AcDbEntity
62
7
8
HANDALSTONE_pc116
100
AcDbLine
10
10.0477
20
0.0027
30
0.0
11
10.0542
21
0.0007
31
0.0
0
LINE
100
AcDbEntity
62
7
8
HANDALSTONE_pc116
100
AcDbLine
10
10.0542
20
0.0007
30
0.0
11
10.0612
21
0
31
0.0
0
LINE
100
AcDbEntity
62
7
8
HANDALSTONE_pc116
100
AcDbLine
10
10.0612
20
0
30
0.0
11
42.9388
21
0
31
0.0
0
LINE
100
AcDbEntity
62
7
8
HANDALSTONE_pc116
100
AcDbLine
10
42.9388
20
0
30
0.0
11
42.9458
21
0.0007
31
0.0
0
LINE
100
AcDbEntity
62
7
8
HANDALSTONE_pc116
100
AcDbLine
10
42.9458
20
0.0007
30
0.0
11
42.9523
21
0.0027
31
0.0
0
LINE
100
AcDbEntity
62
7
8
HANDALSTONE_pc116
100
AcDbLine
10
42.9523
20
0.0027
30
0.0
11
42.9583
21
0.0059
31
0.0
0
LINE
100
AcDbEntity
62
7
8
HANDALSTONE_pc116
100
AcDbLine
10
42.9583
20
0.0059
30
0.0
11
42.9634
21
0.0102
31
0.0
0
LINE
100
AcDbEntity
62
7
8
HANDALSTONE_pc116
100
AcDbLine
10
42.9634
20
0.0102
30
0.0
11
42.9677
21
0.0153
31
0.0
0
LINE
100
AcDbEntity
62
7
8
HANDALSTONE_pc116
100
AcDbLine
10
42.9677
20
0.0153
30
0.0
11
42.971
21
0.0212
31
0.0
0
LINE
100
AcDbEntity
62
7
8
HANDALSTONE_pc116
100
AcDbLine
10
42.971
20
0.0212
30
0.0
11
42.973
21
0.0277
31
0.0
0
LINE
100
AcDbEntity
62
7
8
HANDALSTONE_pc116
100
AcDbLine
10
42.973
20
0.0277
30
0.0
11
42.9738
21
0.0347
31
0.0
0
LINE
100
AcDbEntity
62
7
8
HANDALSTONE_pc116
100
AcDbLine
10
42.9738
20
0.0347
30
0.0
11
42.975
21
0.1041
31
0.0
0
LINE
100
AcDbEntity
62
7
8
HANDALSTONE_pc116
100
AcDbLine
10
42.975
20
0.1041
30
0.0
11
42.9773
21
0.1723
31
0.0
0
LINE
100
AcDbEntity
62
7
8
HANDALSTONE_pc116
100
AcDbLine
10
42.9773
20
0.1723
30
0.0
11
42.9809
21
0.2394
31
0.0
0
LINE
100
AcDbEntity
62
7
8
HANDALSTONE_pc116
100
AcDbLine
10
42.9809
20
0.2394
30
0.0
11
42.9855
21
0.3052
31
0.0
0
LINE
100
AcDbEntity
62
7
8
HANDALSTONE_pc116
100
AcDbLine
10
42.9855
20
0.3052
30
0.0
11
42.9912
21
0.37
31
0.0
0
LINE
100
AcDbEntity
62
7
8
HANDALSTONE_pc116
100
AcDbLine
10
42.9912
20
0.37
30
0.0
11
42.9979
21
0.4335
31
0.0
0
LINE
100
AcDbEntity
62
7
8
HANDALSTONE_pc116
100
AcDbLine
10
42.9979
20
0.4335
30
0.0
11
43.0057
21
0.496
31
0.0
0
LINE
100
AcDbEntity
62
7
8
HANDALSTONE_pc116
100
AcDbLine
10
43.0057
20
0.496
30
0.0
11
43.0144
21
0.5573
31
0.0
0
LINE
100
AcDbEntity
62
7
8
HANDALSTONE_pc116
100
AcDbLine
10
43.0144
20
0.5573
30
0.0
11
43.0242
21
0.6175
31
0.0
0
LINE
100
AcDbEntity
62
7
8
HANDALSTONE_pc116
100
AcDbLine
10
43.0242
20
0.6175
30
0.0
11
43.0349
21
0.6766
31
0.0
0
LINE
100
AcDbEntity
62
7
8
HANDALSTONE_pc116
100
AcDbLine
10
43.0349
20
0.6766
30
0.0
11
43.0464
21
0.7347
31
0.0
0
LINE
100
AcDbEntity
62
7
8
HANDALSTONE_pc116
100
AcDbLine
10
43.0464
20
0.7347
30
0.0
11
43.0589
21
0.7916
31
0.0
0
LINE
100
AcDbEntity
62
7
8
HANDALSTONE_pc116
100
AcDbLine
10
43.0589
20
0.7916
30
0.0
11
43.0722
21
0.8475
31
0.0
0
LINE
100
AcDbEntity
62
7
8
HANDALSTONE_pc116
100
AcDbLine
10
43.0722
20
0.8475
30
0.0
11
43.0864
21
0.9024
31
0.0
0
LINE
100
AcDbEntity
62
7
8
HANDALSTONE_pc116
100
AcDbLine
10
43.0864
20
0.9024
30
0.0
11
43.1013
21
0.9562
31
0.0
0
LINE
100
AcDbEntity
62
7
8
HANDALSTONE_pc116
100
AcDbLine
10
43.1013
20
0.9562
30
0.0
11
43.117
21
1.009
31
0.0
0
LINE
100
AcDbEntity
62
7
8
HANDALSTONE_pc116
100
AcDbLine
10
43.117
20
1.009
30
0.0
11
43.1335
21
1.0608
31
0.0
0
LINE
100
AcDbEntity
62
7
8
HANDALSTONE_pc116
100
AcDbLine
10
43.1335
20
1.0608
30
0.0
11
43.1507
21
1.1116
31
0.0
0
LINE
100
AcDbEntity
62
7
8
HANDALSTONE_pc116
100
AcDbLine
10
43.1507
20
1.1116
30
0.0
11
43.1685
21
1.1614
31
0.0
0
LINE
100
AcDbEntity
62
7
8
HANDALSTONE_pc116
100
AcDbLine
10
43.1685
20
1.1614
30
0.0
11
43.187
21
1.2102
31
0.0
0
LINE
100
AcDbEntity
62
7
8
HANDALSTONE_pc116
100
AcDbLine
10
43.187
20
1.2102
30
0.0
11
43.2061
21
1.2581
31
0.0
0
LINE
100
AcDbEntity
62
7
8
HANDALSTONE_pc116
100
AcDbLine
10
43.2061
20
1.2581
30
0.0
11
43.2258
21
1.305
31
0.0
0
LINE
100
AcDbEntity
62
7
8
HANDALSTONE_pc116
100
AcDbLine
10
43.2258
20
1.305
30
0.0
11
43.2461
21
1.351
31
0.0
0
LINE
100
AcDbEntity
62
7
8
HANDALSTONE_pc116
100
AcDbLine
10
43.2461
20
1.351
30
0.0
11
43.267
21
1.3961
31
0.0
0
LINE
100
AcDbEntity
62
7
8
HANDALSTONE_pc116
100
AcDbLine
10
43.267
20
1.3961
30
0.0
11
43.2883
21
1.4402
31
0.0
0
LINE
100
AcDbEntity
62
7
8
HANDALSTONE_pc116
100
AcDbLine
10
43.2883
20
1.4402
30
0.0
11
43.3101
21
1.4834
31
0.0
0
LINE
100
AcDbEntity
62
7
8
HANDALSTONE_pc116
100
AcDbLine
10
43.3101
20
1.4834
30
0.0
11
43.3324
21
1.5258
31
0.0
0
LINE
100
AcDbEntity
62
7
8
HANDALSTONE_pc116
100
AcDbLine
10
43.3324
20
1.5258
30
0.0
11
43.3551
21
1.5673
31
0.0
0
LINE
100
AcDbEntity
62
7
8
HANDALSTONE_pc116
100
AcDbLine
10
43.3551
20
1.5673
30
0.0
11
43.3782
21
1.6079
31
0.0
0
LINE
100
AcDbEntity
62
7
8
HANDALSTONE_pc116
100
AcDbLine
10
43.3782
20
1.6079
30
0.0
11
43.4016
21
1.6476
31
0.0
0
LINE
100
AcDbEntity
62
7
8
HANDALSTONE_pc116
100
AcDbLine
10
43.4016
20
1.6476
30
0.0
11
43.4495
21
1.7246
31
0.0
0
LINE
100
AcDbEntity
62
7
8
HANDALSTONE_pc116
100
AcDbLine
10
43.4495
20
1.7246
30
0.0
11
43.4985
21
1.7984
31
0.0
0
LINE
100
AcDbEntity
62
7
8
HANDALSTONE_pc116
100
AcDbLine
10
43.4985
20
1.7984
30
0.0
11
43.5484
21
1.869
31
0.0
0
LINE
100
AcDbEntity
62
7
8
HANDALSTONE_pc116
100
AcDbLine
10
43.5484
20
1.869
30
0.0
11
43.599
21
1.9365
31
0.0
0
LINE
100
AcDbEntity
62
7
8
HANDALSTONE_pc116
100
AcDbLine
10
43.599
20
1.9365
30
0.0
11
43.65
21
2.001
31
0.0
0
LINE
100
AcDbEntity
62
7
8
HANDALSTONE_pc116
100
AcDbLine
10
43.65
20
2.001
30
0.0
11
43.7013
21
2.0627
31
0.0
0
LINE
100
AcDbEntity
62
7
8
HANDALSTONE_pc116
100
AcDbLine
10
43.7013
20
2.0627
30
0.0
11
43.7525
21
2.1216
31
0.0
0
LINE
100
AcDbEntity
62
7
8
HANDALSTONE_pc116
100
AcDbLine
10
43.7525
20
2.1216
30
0.0
11
43.8034
21
2.1778
31
0.0
0
LINE
100
AcDbEntity
62
7
8
HANDALSTONE_pc116
100
AcDbLine
10
43.8034
20
2.1778
30
0.0
11
43.8539
21
2.2314
31
0.0
0
LINE
100
AcDbEntity
62
7
8
HANDALSTONE_pc116
100
AcDbLine
10
43.8539
20
2.2314
30
0.0
11
43.9037
21
2.2826
31
0.0
0
LINE
100
AcDbEntity
62
7
8
HANDALSTONE_pc116
100
AcDbLine
10
43.9037
20
2.2826
30
0.0
11
43.9525
21
2.3313
31
0.0
0
LINE
100
AcDbEntity
62
7
8
HANDALSTONE_pc116
100
AcDbLine
10
43.9525
20
2.3313
30
0.0
11
44.0464
21
2.4221
31
0.0
0
LINE
100
AcDbEntity
62
7
8
HANDALSTONE_pc116
100
AcDbLine
10
44.0464
20
2.4221
30
0.0
11
44.1338
21
2.5044
31
0.0
0
LINE
100
AcDbEntity
62
7
8
HANDALSTONE_pc116
100
AcDbLine
10
44.1338
20
2.5044
30
0.0
11
44.2128
21
2.5792
31
0.0
0
LINE
100
AcDbEntity
62
7
8
HANDALSTONE_pc116
100
AcDbLine
10
44.2128
20
2.5792
30
0.0
11
44.2162
21
2.583
31
0.0
0
LINE
100
AcDbEntity
62
7
8
HANDALSTONE_pc116
100
AcDbLine
10
44.2162
20
2.583
30
0.0
11
44.2186
21
2.5873
31
0.0
0
LINE
100
AcDbEntity
62
7
8
HANDALSTONE_pc116
100
AcDbLine
10
44.2186
20
2.5873
30
0.0
11
44.22
21
2.5921
31
0.0
0
LINE
100
AcDbEntity
62
7
8
HANDALSTONE_pc116
100
AcDbLine
10
44.22
20
2.5921
30
0.0
11
44.2205
21
2.5971
31
0.0
0
LINE
100
AcDbEntity
62
7
8
HANDALSTONE_pc116
100
AcDbLine
10
44.2205
20
2.5971
30
0.0
11
44.2205
21
4.19397
31
0.0
0
LINE
100
AcDbEntity
62
7
8
HANDALSTONE_pc116
100
AcDbLine
10
44.2205
20
4.19397
30
0.0
11
44.2215
21
4.20467
31
0.0
0
LINE
100
AcDbEntity
62
7
8
HANDALSTONE_pc116
100
AcDbLine
10
44.2215
20
4.20467
30
0.0
11
44.2237
21
4.2149
31
0.0
0
LINE
100
AcDbEntity
62
7
8
HANDALSTONE_pc116
100
AcDbLine
10
44.2237
20
4.2149
30
0.0
11
44.227
21
4.22472
31
0.0
0
LINE
100
AcDbEntity
62
7
8
HANDALSTONE_pc116
100
AcDbLine
10
44.227
20
4.22472
30
0.0
11
44.2316
21
4.2341
31
0.0
0
LINE
100
AcDbEntity
62
7
8
HANDALSTONE_pc116
100
AcDbLine
10
44.2316
20
4.2341
30
0.0
11
44.2375
21
4.24307
31
0.0
0
LINE
100
AcDbEntity
62
7
8
HANDALSTONE_pc116
100
AcDbLine
10
44.2375
20
4.24307
30
0.0
11
44.2447
21
4.25166
31
0.0
0
LINE
100
AcDbEntity
62
7
8
HANDALSTONE_pc116
100
AcDbLine
10
44.2447
20
4.25166
30
0.0
11
44.2533
21
4.25989
31
0.0
0
LINE
100
AcDbEntity
62
7
8
HANDALSTONE_pc116
100
AcDbLine
10
44.2533
20
4.25989
30
0.0
11
44.2633
21
4.26775
31
0.0
0
LINE
100
AcDbEntity
62
7
8
HANDALSTONE_pc116
100
AcDbLine
10
44.2633
20
4.26775
30
0.0
11
44.2748
21
4.27528
31
0.0
0
LINE
100
AcDbEntity
62
7
8
HANDALSTONE_pc116
100
AcDbLine
10
44.2748
20
4.27528
30
0.0
11
44.2878
21
4.28249
31
0.0
0
LINE
100
AcDbEntity
62
7
8
HANDALSTONE_pc116
100
AcDbLine
10
44.2878
20
4.28249
30
0.0
11
44.3024
21
4.2894
31
0.0
0
LINE
100
AcDbEntity
62
7
8
HANDALSTONE_pc116
100
AcDbLine
10
44.3024
20
4.2894
30
0.0
11
44.3186
21
4.29602
31
0.0
0
LINE
100
AcDbEntity
62
7
8
HANDALSTONE_pc116
100
AcDbLine
10
44.3186
20
4.29602
30
0.0
11
44.3365
21
4.30237
31
0.0
0
LINE
100
AcDbEntity
62
7
8
HANDALSTONE_pc116
100
AcDbLine
10
44.3365
20
4.30237
30
0.0
11
44.3775
21
4.31433
31
0.0
0
LINE
100
AcDbEntity
62
7
8
HANDALSTONE_pc116
100
AcDbLine
10
44.3775
20
4.31433
30
0.0
11
44.4095
21
4.32173
31
0.0
0
LINE
100
AcDbEntity
62
7
8
HANDALSTONE_pc116
100
AcDbLine
10
44.4095
20
4.32173
30
0.0
11
44.4505
21
4.33014
31
0.0
0
LINE
100
AcDbEntity
62
7
8
HANDALSTONE_pc116
100
AcDbLine
10
44.4505
20
4.33014
30
0.0
11
44.5569
21
4.35146
31
0.0
0
LINE
100
AcDbEntity
62
7
8
HANDALSTONE_pc116
100
AcDbLine
10
44.5569
20
4.35146
30
0.0
11
44.6212
21
4.36516
31
0.0
0
LINE
100
AcDbEntity
62
7
8
HANDALSTONE_pc116
100
AcDbLine
10
44.6212
20
4.36516
30
0.0
11
44.6921
21
4.38141
31
0.0
0
LINE
100
AcDbEntity
62
7
8
HANDALSTONE_pc116
100
AcDbLine
10
44.6921
20
4.38141
30
0.0
11
44.7689
21
4.40059
31
0.0
0
LINE
100
AcDbEntity
62
7
8
HANDALSTONE_pc116
100
AcDbLine
10
44.7689
20
4.40059
30
0.0
11
44.8512
21
4.42311
31
0.0
0
LINE
100
AcDbEntity
62
7
8
HANDALSTONE_pc116
100
AcDbLine
10
44.8512
20
4.42311
30
0.0
11
44.9381
21
4.44934
31
0.0
0
LINE
100
AcDbEntity
62
7
8
HANDALSTONE_pc116
100
AcDbLine
10
44.9381
20
4.44934
30
0.0
11
45.0293
21
4.47968
31
0.0
0
LINE
100
AcDbEntity
62
7
8
HANDALSTONE_pc116
100
AcDbLine
10
45.0293
20
4.47968
30
0.0
11
45.0763
21
4.49652
31
0.0
0
LINE
100
AcDbEntity
62
7
8
HANDALSTONE_pc116
100
AcDbLine
10
45.0763
20
4.49652
30
0.0
11
45.1241
21
4.51453
31
0.0
0
LINE
100
AcDbEntity
62
7
8
HANDALSTONE_pc116
100
AcDbLine
10
45.1241
20
4.51453
30
0.0
11
45.1726
21
4.53375
31
0.0
0
LINE
100
AcDbEntity
62
7
8
HANDALSTONE_pc116
100
AcDbLine
10
45.1726
20
4.53375
30
0.0
11
45.2218
21
4.55426
31
0.0
0
LINE
100
AcDbEntity
62
7
8
HANDALSTONE_pc116
100
AcDbLine
10
45.2218
20
4.55426
30
0.0
11
45.2716
21
4.57608
31
0.0
0
LINE
100
AcDbEntity
62
7
8
HANDALSTONE_pc116
100
AcDbLine
10
45.2716
20
4.57608
30
0.0
11
45.3219
21
4.59927
31
0.0
0
LINE
100
AcDbEntity
62
7
8
HANDALSTONE_pc116
100
AcDbLine
10
45.3219
20
4.59927
30
0.0
11
45.3726
21
4.62387
31
0.0
0
LINE
100
AcDbEntity
62
7
8
HANDALSTONE_pc116
100
AcDbLine
10
45.3726
20
4.62387
30
0.0
11
45.4238
21
4.64995
31
0.0
0
LINE
100
AcDbEntity
62
7
8
HANDALSTONE_pc116
100
AcDbLine
10
45.4238
20
4.64995
30
0.0
11
45.4752
21
4.67754
31
0.0
0
LINE
100
AcDbEntity
62
7
8
HANDALSTONE_pc116
100
AcDbLine
10
45.4752
20
4.67754
30
0.0
11
45.5268
21
4.7067
31
0.0
0
LINE
100
AcDbEntity
62
7
8
HANDALSTONE_pc116
100
AcDbLine
10
45.5268
20
4.7067
30
0.0
11
45.5786
21
4.73746
31
0.0
0
LINE
100
AcDbEntity
62
7
8
HANDALSTONE_pc116
100
AcDbLine
10
45.5786
20
4.73746
30
0.0
11
45.6304
21
4.76988
31
0.0
0
LINE
100
AcDbEntity
62
7
8
HANDALSTONE_pc116
100
AcDbLine
10
45.6304
20
4.76988
30
0.0
11
45.6823
21
4.80402
31
0.0
0
LINE
100
AcDbEntity
62
7
8
HANDALSTONE_pc116
100
AcDbLine
10
45.6823
20
4.80402
30
0.0
11
45.734
21
4.8399
31
0.0
0
LINE
100
AcDbEntity
62
7
8
HANDALSTONE_pc116
100
AcDbLine
10
45.734
20
4.8399
30
0.0
11
45.7856
21
4.87761
31
0.0
0
LINE
100
AcDbEntity
62
7
8
HANDALSTONE_pc116
100
AcDbLine
10
45.7856
20
4.87761
30
0.0
11
45.837
21
4.91718
31
0.0
0
LINE
100
AcDbEntity
62
7
8
HANDALSTONE_pc116
100
AcDbLine
10
45.837
20
4.91718
30
0.0
11
45.8881
21
4.95863
31
0.0
0
LINE
100
AcDbEntity
62
7
8
HANDALSTONE_pc116
100
AcDbLine
10
45.8881
20
4.95863
30
0.0
11
45.9388
21
5.00206
31
0.0
0
LINE
100
AcDbEntity
62
7
8
HANDALSTONE_pc116
100
AcDbLine
10
45.9388
20
5.00206
30
0.0
11
45.989
21
5.04747
31
0.0
0
LINE
100
AcDbEntity
62
7
8
HANDALSTONE_pc116
100
AcDbLine
10
45.989
20
5.04747
30
0.0
11
46.0387
21
5.09496
31
0.0
0
LINE
100
AcDbEntity
62
7
8
HANDALSTONE_pc116
100
AcDbLine
10
46.0387
20
5.09496
30
0.0
11
46.0878
21
5.14452
31
0.0
0
LINE
100
AcDbEntity
62
7
8
HANDALSTONE_pc116
100
AcDbLine
10
46.0878
20
5.14452
30
0.0
11
46.1362
21
5.19624
31
0.0
0
LINE
100
AcDbEntity
62
7
8
HANDALSTONE_pc116
100
AcDbLine
10
46.1362
20
5.19624
30
0.0
11
46.1839
21
5.25017
31
0.0
0
LINE
100
AcDbEntity
62
7
8
HANDALSTONE_pc116
100
AcDbLine
10
46.1839
20
5.25017
30
0.0
11
46.2307
21
5.30634
31
0.0
0
LINE
100
AcDbEntity
62
7
8
HANDALSTONE_pc116
100
AcDbLine
10
46.2307
20
5.30634
30
0.0
11
46.2766
21
5.36479
31
0.0
0
LINE
100
AcDbEntity
62
7
8
HANDALSTONE_pc116
100
AcDbLine
10
46.2766
20
5.36479
30
0.0
11
46.3216
21
5.4256
31
0.0
0
LINE
100
AcDbEntity
62
7
8
HANDALSTONE_pc116
100
AcDbLine
10
46.3216
20
5.4256
30
0.0
11
46.3654
21
5.4888
31
0.0
0
LINE
100
AcDbEntity
62
7
8
HANDALSTONE_pc116
100
AcDbLine
10
46.3654
20
5.4888
30
0.0
11
46.4082
21
5.55444
31
0.0
0
LINE
100
AcDbEntity
62
7
8
HANDALSTONE_pc116
100
AcDbLine
10
46.4082
20
5.55444
30
0.0
11
46.4498
21
5.62257
31
0.0
0
LINE
100
AcDbEntity
62
7
8
HANDALSTONE_pc116
100
AcDbLine
10
46.4498
20
5.62257
30
0.0
11
46.49
21
5.69324
31
0.0
0
LINE
100
AcDbEntity
62
7
8
HANDALSTONE_pc116
100
AcDbLine
10
46.49
20
5.69324
30
0.0
11
46.5289
21
5.76651
31
0.0
0
LINE
100
AcDbEntity
62
7
8
HANDALSTONE_pc116
100
AcDbLine
10
46.5289
20
5.76651
30
0.0
11
46.5664
21
5.84241
31
0.0
0
LINE
100
AcDbEntity
62
7
8
HANDALSTONE_pc116
100
AcDbLine
10
46.5664
20
5.84241
30
0.0
11
46.6024
21
5.92097
31
0.0
0
LINE
100
AcDbEntity
62
7
8
HANDALSTONE_pc116
100
AcDbLine
10
46.6024
20
5.92097
30
0.0
11
46.6368
21
6.0023
31
0.0
0
LINE
100
AcDbEntity
62
7
8
HANDALSTONE_pc116
100
AcDbLine
10
46.6368
20
6.0023
30
0.0
11
46.6696
21
6.0864
31
0.0
0
LINE
100
AcDbEntity
62
7
8
HANDALSTONE_pc116
100
AcDbLine
10
46.6696
20
6.0864
30
0.0
11
46.7006
21
6.17332
31
0.0
0
LINE
100
AcDbEntity
62
7
8
HANDALSTONE_pc116
100
AcDbLine
10
46.7006
20
6.17332
30
0.0
11
46.7298
21
6.26314
31
0.0
0
LINE
100
AcDbEntity
62
7
8
HANDALSTONE_pc116
100
AcDbLine
10
46.7298
20
6.26314
30
0.0
11
46.7571
21
6.35588
31
0.0
0
LINE
100
AcDbEntity
62
7
8
HANDALSTONE_pc116
100
AcDbLine
10
46.7571
20
6.35588
30
0.0
11
46.7825
21
6.4516
31
0.0
0
LINE
100
AcDbEntity
62
7
8
HANDALSTONE_pc116
100
AcDbLine
10
46.7825
20
6.4516
30
0.0
11
46.8058
21
6.55035
31
0.0
0
LINE
100
AcDbEntity
62
7
8
HANDALSTONE_pc116
100
AcDbLine
10
46.8058
20
6.55035
30
0.0
11
46.8271
21
6.65218
31
0.0
0
LINE
100
AcDbEntity
62
7
8
HANDALSTONE_pc116
100
AcDbLine
10
46.8271
20
6.65218
30
0.0
11
46.8461
21
6.75713
31
0.0
0
LINE
100
AcDbEntity
62
7
8
HANDALSTONE_pc116
100
AcDbLine
10
46.8461
20
6.75713
30
0.0
11
46.8629
21
6.86525
31
0.0
0
LINE
100
AcDbEntity
62
7
8
HANDALSTONE_pc116
100
AcDbLine
10
46.8629
20
6.86525
30
0.0
11
46.8898
21
7.07179
31
0.0
0
LINE
100
AcDbEntity
62
7
8
HANDALSTONE_pc116
100
AcDbLine
10
46.8898
20
7.07179
30
0.0
11
46.9042
21
7.16486
31
0.0
0
LINE
100
AcDbEntity
62
7
8
HANDALSTONE_pc116
100
AcDbLine
10
46.9042
20
7.16486
30
0.0
11
46.9206
21
7.25578
31
0.0
0
LINE
100
AcDbEntity
62
7
8
HANDALSTONE_pc116
100
AcDbLine
10
46.9206
20
7.25578
30
0.0
11
46.939
21
7.3446
31
0.0
0
LINE
100
AcDbEntity
62
7
8
HANDALSTONE_pc116
100
AcDbLine
10
46.939
20
7.3446
30
0.0
11
46.9593
21
7.43134
31
0.0
0
LINE
100
AcDbEntity
62
7
8
HANDALSTONE_pc116
100
AcDbLine
10
46.9593
20
7.43134
30
0.0
11
46.9815
21
7.51601
31
0.0
0
LINE
100
AcDbEntity
62
7
8
HANDALSTONE_pc116
100
AcDbLine
10
46.9815
20
7.51601
30
0.0
11
47.0054
21
7.59863
31
0.0
0
LINE
100
AcDbEntity
62
7
8
HANDALSTONE_pc116
100
AcDbLine
10
47.0054
20
7.59863
30
0.0
11
47.031
21
7.67924
31
0.0
0
LINE
100
AcDbEntity
62
7
8
HANDALSTONE_pc116
100
AcDbLine
10
47.031
20
7.67924
30
0.0
11
47.0583
21
7.75787
31
0.0
0
LINE
100
AcDbEntity
62
7
8
HANDALSTONE_pc116
100
AcDbLine
10
47.0583
20
7.75787
30
0.0
11
47.0873
21
7.8345
31
0.0
0
LINE
100
AcDbEntity
62
7
8
HANDALSTONE_pc116
100
AcDbLine
10
47.0873
20
7.8345
30
0.0
11
47.1178
21
7.90919
31
0.0
0
LINE
100
AcDbEntity
62
7
8
HANDALSTONE_pc116
100
AcDbLine
10
47.1178
20
7.90919
30
0.0
11
47.1498
21
7.98195
31
0.0
0
LINE
100
AcDbEntity
62
7
8
HANDALSTONE_pc116
100
AcDbLine
10
47.1498
20
7.98195
30
0.0
11
47.1832
21
8.0528
31
0.0
0
LINE
100
AcDbEntity
62
7
8
HANDALSTONE_pc116
100
AcDbLine
10
47.1832
20
8.0528
30
0.0
11
47.218
21
8.12175
31
0.0
0
LINE
100
AcDbEntity
62
7
8
HANDALSTONE_pc116
100
AcDbLine
10
47.218
20
8.12175
30
0.0
11
47.2542
21
8.18884
31
0.0
0
LINE
100
AcDbEntity
62
7
8
HANDALSTONE_pc116
100
AcDbLine
10
47.2542
20
8.18884
30
0.0
11
47.2917
21
8.25409
31
0.0
0
LINE
100
AcDbEntity
62
7
8
HANDALSTONE_pc116
100
AcDbLine
10
47.2917
20
8.25409
30
0.0
11
47.3303
21
8.31752
31
0.0
0
LINE
100
AcDbEntity
62
7
8
HANDALSTONE_pc116
100
AcDbLine
10
47.3303
20
8.31752
30
0.0
11
47.3702
21
8.37915
31
0.0
0
LINE
100
AcDbEntity
62
7
8
HANDALSTONE_pc116
100
AcDbLine
10
47.3702
20
8.37915
30
0.0
11
47.4111
21
8.43901
31
0.0
0
LINE
100
AcDbEntity
62
7
8
HANDALSTONE_pc116
100
AcDbLine
10
47.4111
20
8.43901
30
0.0
11
47.4531
21
8.4971
31
0.0
0
LINE
100
AcDbEntity
62
7
8
HANDALSTONE_pc116
100
AcDbLine
10
47.4531
20
8.4971
30
0.0
11
47.4961
21
8.55347
31
0.0
0
LINE
100
AcDbEntity
62
7
8
HANDALSTONE_pc116
100
AcDbLine
10
47.4961
20
8.55347
30
0.0
11
47.5401
21
8.60812
31
0.0
0
LINE
100
AcDbEntity
62
7
8
HANDALSTONE_pc116
100
AcDbLine
10
47.5401
20
8.60812
30
0.0
11
47.5849
21
8.66109
31
0.0
0
LINE
100
AcDbEntity
62
7
8
HANDALSTONE_pc116
100
AcDbLine
10
47.5849
20
8.66109
30
0.0
11
47.6306
21
8.71239
31
0.0
0
LINE
100
AcDbEntity
62
7
8
HANDALSTONE_pc116
100
AcDbLine
10
47.6306
20
8.71239
30
0.0
11
47.677
21
8.76204
31
0.0
0
LINE
100
AcDbEntity
62
7
8
HANDALSTONE_pc116
100
AcDbLine
10
47.677
20
8.76204
30
0.0
11
47.7242
21
8.81006
31
0.0
0
LINE
100
AcDbEntity
62
7
8
HANDALSTONE_pc116
100
AcDbLine
10
47.7242
20
8.81006
30
0.0
11
47.772
21
8.85649
31
0.0
0
LINE
100
AcDbEntity
62
7
8
HANDALSTONE_pc116
100
AcDbLine
10
47.772
20
8.85649
30
0.0
11
47.8205
21
8.90134
31
0.0
0
LINE
100
AcDbEntity
62
7
8
HANDALSTONE_pc116
100
AcDbLine
10
47.8205
20
8.90134
30
0.0
11
47.8695
21
8.94463
31
0.0
0
LINE
100
AcDbEntity
62
7
8
HANDALSTONE_pc116
100
AcDbLine
10
47.8695
20
8.94463
30
0.0
11
47.9189
21
8.98637
31
0.0
0
LINE
100
AcDbEntity
62
7
8
HANDALSTONE_pc116
100
AcDbLine
10
47.9189
20
8.98637
30
0.0
11
47.9689
21
9.02663
31
0.0
0
LINE
100
AcDbEntity
62
7
8
HANDALSTONE_pc116
100
AcDbLine
10
47.9689
20
9.02663
30
0.0
11
48.0192
21
9.06537
31
0.0
0
LINE
100
AcDbEntity
62
7
8
HANDALSTONE_pc116
100
AcDbLine
10
48.0192
20
9.06537
30
0.0
11
48.0698
21
9.10265
31
0.0
0
LINE
100
AcDbEntity
62
7
8
HANDALSTONE_pc116
100
AcDbLine
10
48.0698
20
9.10265
30
0.0
11
48.1207
21
9.13849
31
0.0
0
LINE
100
AcDbEntity
62
7
8
HANDALSTONE_pc116
100
AcDbLine
10
48.1207
20
9.13849
30
0.0
11
48.1718
21
9.1729
31
0.0
0
LINE
100
AcDbEntity
62
7
8
HANDALSTONE_pc116
100
AcDbLine
10
48.1718
20
9.1729
30
0.0
11
48.2231
21
9.2059
31
0.0
0
LINE
100
AcDbEntity
62
7
8
HANDALSTONE_pc116
100
AcDbLine
10
48.2231
20
9.2059
30
0.0
11
48.2744
21
9.23752
31
0.0
0
LINE
100
AcDbEntity
62
7
8
HANDALSTONE_pc116
100
AcDbLine
10
48.2744
20
9.23752
30
0.0
11
48.3258
21
9.26778
31
0.0
0
LINE
100
AcDbEntity
62
7
8
HANDALSTONE_pc116
100
AcDbLine
10
48.3258
20
9.26778
30
0.0
11
48.3773
21
9.29671
31
0.0
0
LINE
100
AcDbEntity
62
7
8
HANDALSTONE_pc116
100
AcDbLine
10
48.3773
20
9.29671
30
0.0
11
48.4286
21
9.32433
31
0.0
0
LINE
100
AcDbEntity
62
7
8
HANDALSTONE_pc116
100
AcDbLine
10
48.4286
20
9.32433
30
0.0
11
48.4798
21
9.35063
31
0.0
0
LINE
100
AcDbEntity
62
7
8
HANDALSTONE_pc116
100
AcDbLine
10
48.4798
20
9.35063
30
0.0
11
48.5309
21
9.37569
31
0.0
0
LINE
100
AcDbEntity
62
7
8
HANDALSTONE_pc116
100
AcDbLine
10
48.5309
20
9.37569
30
0.0
11
48.5817
21
9.39948
31
0.0
0
LINE
100
AcDbEntity
62
7
8
HANDALSTONE_pc116
100
AcDbLine
10
48.5817
20
9.39948
30
0.0
11
48.6322
21
9.42204
31
0.0
0
LINE
100
AcDbEntity
62
7
8
HANDALSTONE_pc116
100
AcDbLine
10
48.6322
20
9.42204
30
0.0
11
48.6824
21
9.44341
31
0.0
0
LINE
100
AcDbEntity
62
7
8
HANDALSTONE_pc116
100
AcDbLine
10
48.6824
20
9.44341
30
0.0
11
48.7321
21
9.46359
31
0.0
0
LINE
100
AcDbEntity
62
7
8
HANDALSTONE_pc116
100
AcDbLine
10
48.7321
20
9.46359
30
0.0
11
48.7814
21
9.4826
31
0.0
0
LINE
100
AcDbEntity
62
7
8
HANDALSTONE_pc116
100
AcDbLine
10
48.7814
20
9.4826
30
0.0
11
48.8302
21
9.50049
31
0.0
0
LINE
100
AcDbEntity
62
7
8
HANDALSTONE_pc116
100
AcDbLine
10
48.8302
20
9.50049
30
0.0
11
48.8785
21
9.51726
31
0.0
0
LINE
100
AcDbEntity
62
7
8
HANDALSTONE_pc116
100
AcDbLine
10
48.8785
20
9.51726
30
0.0
11
48.9261
21
9.53291
31
0.0
0
LINE
100
AcDbEntity
62
7
8
HANDALSTONE_pc116
100
AcDbLine
10
48.9261
20
9.53291
30
0.0
11
48.973
21
9.54752
31
0.0
0
LINE
100
AcDbEntity
62
7
8
HANDALSTONE_pc116
100
AcDbLine
10
48.973
20
9.54752
30
0.0
11
49.0192
21
9.56105
31
0.0
0
LINE
100
AcDbEntity
62
7
8
HANDALSTONE_pc116
100
AcDbLine
10
49.0192
20
9.56105
30
0.0
11
49.0645
21
9.57356
31
0.0
0
LINE
100
AcDbEntity
62
7
8
HANDALSTONE_pc116
100
AcDbLine
10
49.0645
20
9.57356
30
0.0
11
49.1091
21
9.58507
31
0.0
0
LINE
100
AcDbEntity
62
7
8
HANDALSTONE_pc116
100
AcDbLine
10
49.1091
20
9.58507
30
0.0
11
49.1954
21
9.60515
31
0.0
0
LINE
100
AcDbEntity
62
7
8
HANDALSTONE_pc116
100
AcDbLine
10
49.1954
20
9.60515
30
0.0
11
49.2776
21
9.62146
31
0.0
0
LINE
100
AcDbEntity
62
7
8
HANDALSTONE_pc116
100
AcDbLine
10
49.2776
20
9.62146
30
0.0
11
49.3553
21
9.63417
31
0.0
0
LINE
100
AcDbEntity
62
7
8
HANDALSTONE_pc116
100
AcDbLine
10
49.3553
20
9.63417
30
0.0
11
49.428
21
9.64348
31
0.0
0
LINE
100
AcDbEntity
62
7
8
HANDALSTONE_pc116
100
AcDbLine
10
49.428
20
9.64348
30
0.0
11
49.4953
21
9.64954
31
0.0
0
LINE
100
AcDbEntity
62
7
8
HANDALSTONE_pc116
100
AcDbLine
10
49.4953
20
9.64954
30
0.0
11
49.5029
21
9.65065
31
0.0
0
LINE
100
AcDbEntity
62
7
8
HANDALSTONE_pc116
100
AcDbLine
10
49.5029
20
9.65065
30
0.0
11
49.5107
21
9.65289
31
0.0
0
LINE
100
AcDbEntity
62
7
8
HANDALSTONE_pc116
100
AcDbLine
10
49.5107
20
9.65289
30
0.0
11
49.5186
21
9.65614
31
0.0
0
LINE
100
AcDbEntity
62
7
8
HANDALSTONE_pc116
100
AcDbLine
10
49.5186
20
9.65614
30
0.0
11
49.5266
21
9.66035
31
0.0
0
LINE
100
AcDbEntity
62
7
8
HANDALSTONE_pc116
100
AcDbLine
10
49.5266
20
9.66035
30
0.0
11
49.5423
21
9.67126
31
0.0
0
LINE
100
AcDbEntity
62
7
8
HANDALSTONE_pc116
100
AcDbLine
10
49.5423
20
9.67126
30
0.0
11
49.5575
21
9.68492
31
0.0
0
LINE
100
AcDbEntity
62
7
8
HANDALSTONE_pc116
100
AcDbLine
10
49.5575
20
9.68492
30
0.0
11
49.5713
21
9.70064
31
0.0
0
LINE
100
AcDbEntity
62
7
8
HANDALSTONE_pc116
100
AcDbLine
10
49.5713
20
9.70064
30
0.0
11
49.5835
21
9.71773
31
0.0
0
LINE
100
AcDbEntity
62
7
8
HANDALSTONE_pc116
100
AcDbLine
10
49.5835
20
9.71773
30
0.0
11
49.5932
21
9.73549
31
0.0
0
LINE
100
AcDbEntity
62
7
8
HANDALSTONE_pc116
100
AcDbLine
10
49.5932
20
9.73549
30
0.0
11
49.6002
21
9.75325
31
0.0
0
LINE
100
AcDbEntity
62
7
8
HANDALSTONE_pc116
100
AcDbLine
10
49.6002
20
9.75325
30
0.0
11
50.5
21
12.24998
31
0.0
0
LINE
100
AcDbEntity
62
7
8
HANDALSTONE_pc116
100
AcDbLine
10
50.5
20
12.24998
30
0.0
11
50.5006
21
12.32741
31
0.0
0
LINE
100
AcDbEntity
62
7
8
HANDALSTONE_pc116
100
AcDbLine
10
50.5006
20
12.32741
30
0.0
11
50.5025
21
12.40434
31
0.0
0
LINE
100
AcDbEntity
62
7
8
HANDALSTONE_pc116
100
AcDbLine
10
50.5025
20
12.40434
30
0.0
11
50.5056
21
12.48077
31
0.0
0
LINE
100
AcDbEntity
62
7
8
HANDALSTONE_pc116
100
AcDbLine
10
50.5056
20
12.48077
30
0.0
11
50.5099
21
12.55669
31
0.0
0
LINE
100
AcDbEntity
62
7
8
HANDALSTONE_pc116
100
AcDbLine
10
50.5099
20
12.55669
30
0.0
11
50.5154
21
12.63202
31
0.0
0
LINE
100
AcDbEntity
62
7
8
HANDALSTONE_pc116
100
AcDbLine
10
50.5154
20
12.63202
30
0.0
11
50.5222
21
12.70679
31
0.0
0
LINE
100
AcDbEntity
62
7
8
HANDALSTONE_pc116
100
AcDbLine
10
50.5222
20
12.70679
30
0.0
11
50.5302
21
12.78096
31
0.0
0
LINE
100
AcDbEntity
62
7
8
HANDALSTONE_pc116
100
AcDbLine
10
50.5302
20
12.78096
30
0.0
11
50.5395
21
12.85451
31
0.0
0
LINE
100
AcDbEntity
62
7
8
HANDALSTONE_pc116
100
AcDbLine
10
50.5395
20
12.85451
30
0.0
11
50.5499
21
12.9274
31
0.0
0
LINE
100
AcDbEntity
62
7
8
HANDALSTONE_pc116
100
AcDbLine
10
50.5499
20
12.9274
30
0.0
11
50.5616
21
12.99963
31
0.0
0
LINE
100
AcDbEntity
62
7
8
HANDALSTONE_pc116
100
AcDbLine
10
50.5616
20
12.99963
30
0.0
11
50.5746
21
13.07117
31
0.0
0
LINE
100
AcDbEntity
62
7
8
HANDALSTONE_pc116
100
AcDbLine
10
50.5746
20
13.07117
30
0.0
11
50.5887
21
13.14198
31
0.0
0
LINE
100
AcDbEntity
62
7
8
HANDALSTONE_pc116
100
AcDbLine
10
50.5887
20
13.14198
30
0.0
11
50.6041
21
13.21207
31
0.0
0
LINE
100
AcDbEntity
62
7
8
HANDALSTONE_pc116
100
AcDbLine
10
50.6041
20
13.21207
30
0.0
11
50.6208
21
13.28137
31
0.0
0
LINE
100
AcDbEntity
62
7
8
HANDALSTONE_pc116
100
AcDbLine
10
50.6208
20
13.28137
30
0.0
11
50.6386
21
13.34988
31
0.0
0
LINE
100
AcDbEntity
62
7
8
HANDALSTONE_pc116
100
AcDbLine
10
50.6386
20
13.34988
30
0.0
11
50.6577
21
13.4176
31
0.0
0
LINE
100
AcDbEntity
62
7
8
HANDALSTONE_pc116
100
AcDbLine
10
50.6577
20
13.4176
30
0.0
11
50.6779
21
13.48447
31
0.0
0
LINE
100
AcDbEntity
62
7
8
HANDALSTONE_pc116
100
AcDbLine
10
50.6779
20
13.48447
30
0.0
11
50.6995
21
13.55049
31
0.0
0
LINE
100
AcDbEntity
62
7
8
HANDALSTONE_pc116
100
AcDbLine
10
50.6995
20
13.55049
30
0.0
11
50.7222
21
13.61562
31
0.0
0
LINE
100
AcDbEntity
62
7
8
HANDALSTONE_pc116
100
AcDbLine
10
50.7222
20
13.61562
30
0.0
11
50.7462
21
13.67984
31
0.0
0
LINE
100
AcDbEntity
62
7
8
HANDALSTONE_pc116
100
AcDbLine
10
50.7462
20
13.67984
30
0.0
11
50.7713
21
13.74313
31
0.0
0
LINE
100
AcDbEntity
62
7
8
HANDALSTONE_pc116
100
AcDbLine
10
50.7713
20
13.74313
30
0.0
11
50.7977
21
13.80547
31
0.0
0
LINE
100
AcDbEntity
62
7
8
HANDALSTONE_pc116
100
AcDbLine
10
50.7977
20
13.80547
30
0.0
11
50.8254
21
13.86682
31
0.0
0
LINE
100
AcDbEntity
62
7
8
HANDALSTONE_pc116
100
AcDbLine
10
50.8254
20
13.86682
30
0.0
11
50.8542
21
13.92719
31
0.0
0
LINE
100
AcDbEntity
62
7
8
HANDALSTONE_pc116
100
AcDbLine
10
50.8542
20
13.92719
30
0.0
11
50.8843
21
13.98653
31
0.0
0
LINE
100
AcDbEntity
62
7
8
HANDALSTONE_pc116
100
AcDbLine
10
50.8843
20
13.98653
30
0.0
11
50.9156
21
14.04482
31
0.0
0
LINE
100
AcDbEntity
62
7
8
HANDALSTONE_pc116
100
AcDbLine
10
50.9156
20
14.04482
30
0.0
11
50.9481
21
14.10202
31
0.0
0
LINE
100
AcDbEntity
62
7
8
HANDALSTONE_pc116
100
AcDbLine
10
50.9481
20
14.10202
30
0.0
11
50.9818
21
14.15814
31
0.0
0
LINE
100
AcDbEntity
62
7
8
HANDALSTONE_pc116
100
AcDbLine
10
50.9818
20
14.15814
30
0.0
11
51.0167
21
14.21315
31
0.0
0
LINE
100
AcDbEntity
62
7
8
HANDALSTONE_pc116
100
AcDbLine
10
51.0167
20
14.21315
30
0.0
11
51.0528
21
14.267
31
0.0
0
LINE
100
AcDbEntity
62
7
8
HANDALSTONE_pc116
100
AcDbLine
10
51.0528
20
14.267
30
0.0
11
51.0902
21
14.3197
31
0.0
0
LINE
100
AcDbEntity
62
7
8
HANDALSTONE_pc116
100
AcDbLine
10
51.0902
20
14.3197
30
0.0
11
51.1288
21
14.3712
31
0.0
0
LINE
100
AcDbEntity
62
7
8
HANDALSTONE_pc116
100
AcDbLine
10
51.1288
20
14.3712
30
0.0
11
51.1686
21
14.42149
31
0.0
0
LINE
100
AcDbEntity
62
7
8
HANDALSTONE_pc116
100
AcDbLine
10
51.1686
20
14.42149
30
0.0
11
51.2096
21
14.47054
31
0.0
0
LINE
100
AcDbEntity
62
7
8
HANDALSTONE_pc116
100
AcDbLine
10
51.2096
20
14.47054
30
0.0
11
51.2518
21
14.51833
31
0.0
0
LINE
100
AcDbEntity
62
7
8
HANDALSTONE_pc116
100
AcDbLine
10
51.2518
20
14.51833
30
0.0
11
51.2952
21
14.56483
31
0.0
0
LINE
100
AcDbEntity
62
7
8
HANDALSTONE_pc116
100
AcDbLine
10
51.2952
20
14.56483
30
0.0
11
51.3398
21
14.61005
31
0.0
0
LINE
100
AcDbEntity
62
7
8
HANDALSTONE_pc116
100
AcDbLine
10
51.3398
20
14.61005
30
0.0
11
51.3857
21
14.65392
31
0.0
0
LINE
100
AcDbEntity
62
7
8
HANDALSTONE_pc116
100
AcDbLine
10
51.3857
20
14.65392
30
0.0
11
51.4327
21
14.69643
31
0.0
0
LINE
100
AcDbEntity
62
7
8
HANDALSTONE_pc116
100
AcDbLine
10
51.4327
20
14.69643
30
0.0
11
51.481
21
14.73756
31
0.0
0
LINE
100
AcDbEntity
62
7
8
HANDALSTONE_pc116
100
AcDbLine
10
51.481
20
14.73756
30
0.0
11
51.5305
21
14.7773
31
0.0
0
LINE
100
AcDbEntity
62
7
8
HANDALSTONE_pc116
100
AcDbLine
10
51.5305
20
14.7773
30
0.0
11
51.5811
21
14.8156
31
0.0
0
LINE
100
AcDbEntity
62
7
8
HANDALSTONE_pc116
100
AcDbLine
10
51.5811
20
14.8156
30
0.0
11
51.633
21
14.85246
31
0.0
0
LINE
100
AcDbEntity
62
7
8
HANDALSTONE_pc116
100
AcDbLine
10
51.633
20
14.85246
30
0.0
11
51.6861
21
14.88785
31
0.0
0
LINE
100
AcDbEntity
62
7
8
HANDALSTONE_pc116
100
AcDbLine
10
51.6861
20
14.88785
30
0.0
11
51.7404
21
14.92174
31
0.0
0
LINE
100
AcDbEntity
62
7
8
HANDALSTONE_pc116
100
AcDbLine
10
51.7404
20
14.92174
30
0.0
11
51.7959
21
14.9541
31
0.0
0
LINE
100
AcDbEntity
62
7
8
HANDALSTONE_pc116
100
AcDbLine
10
51.7959
20
14.9541
30
0.0
11
51.8526
21
14.98492
31
0.0
0
LINE
100
AcDbEntity
62
7
8
HANDALSTONE_pc116
100
AcDbLine
10
51.8526
20
14.98492
30
0.0
11
51.9105
21
15.01419
31
0.0
0
LINE
100
AcDbEntity
62
7
8
HANDALSTONE_pc116
100
AcDbLine
10
51.9105
20
15.01419
30
0.0
11
51.9696
21
15.04185
31
0.0
0
LINE
100
AcDbEntity
62
7
8
HANDALSTONE_pc116
100
AcDbLine
10
51.9696
20
15.04185
30
0.0
11
52.0299
21
15.06792
31
0.0
0
LINE
100
AcDbEntity
62
7
8
HANDALSTONE_pc116
100
AcDbLine
10
52.0299
20
15.06792
30
0.0
11
52.0914
21
15.09233
31
0.0
0
LINE
100
AcDbEntity
62
7
8
HANDALSTONE_pc116
100
AcDbLine
10
52.0914
20
15.09233
30
0.0
11
52.1541
21
15.11508
31
0.0
0
LINE
100
AcDbEntity
62
7
8
HANDALSTONE_pc116
100
AcDbLine
10
52.1541
20
15.11508
30
0.0
11
52.218
21
15.13615
31
0.0
0
LINE
100
AcDbEntity
62
7
8
HANDALSTONE_pc116
100
AcDbLine
10
52.218
20
15.13615
30
0.0
11
52.2831
21
15.15552
31
0.0
0
LINE
100
AcDbEntity
62
7
8
HANDALSTONE_pc116
100
AcDbLine
10
52.2831
20
15.15552
30
0.0
11
52.3495
21
15.17316
31
0.0
0
LINE
100
AcDbEntity
62
7
8
HANDALSTONE_pc116
100
AcDbLine
10
52.3495
20
15.17316
30
0.0
11
52.417
21
15.18903
31
0.0
0
LINE
100
AcDbEntity
62
7
8
HANDALSTONE_pc116
100
AcDbLine
10
52.417
20
15.18903
30
0.0
11
52.4857
21
15.20312
31
0.0
0
LINE
100
AcDbEntity
62
7
8
HANDALSTONE_pc116
100
AcDbLine
10
52.4857
20
15.20312
30
0.0
11
52.5556
21
15.21541
31
0.0
0
LINE
100
AcDbEntity
62
7
8
HANDALSTONE_pc116
100
AcDbLine
10
52.5556
20
15.21541
30
0.0
11
52.6266
21
15.22588
31
0.0
0
LINE
100
AcDbEntity
62
7
8
HANDALSTONE_pc116
100
AcDbLine
10
52.6266
20
15.22588
30
0.0
11
52.6989
21
15.2345
31
0.0
0
LINE
100
AcDbEntity
62
7
8
HANDALSTONE_pc116
100
AcDbLine
10
52.6989
20
15.2345
30
0.0
11
52.7724
21
15.24124
31
0.0
0
LINE
100
AcDbEntity
62
7
8
HANDALSTONE_pc116
100
AcDbLine
10
52.7724
20
15.24124
30
0.0
11
52.8471
21
15.24608
31
0.0
0
LINE
100
AcDbEntity
62
7
8
HANDALSTONE_pc116
100
AcDbLine
10
52.8471
20
15.24608
30
0.0
11
52.9229
21
15.24901
31
0.0
0
LINE
100
AcDbEntity
62
7
8
HANDALSTONE_pc116
100
AcDbLine
10
52.9229
20
15.24901
30
0.0
11
53
21
15.24998
31
0.0
0
LINE
100
AcDbEntity
62
7
8
HANDALSTONE_pc116
100
AcDbLine
10
53
20
15.24998
30
0.0
11
53
21
18.24998
31
0.0
0
LINE
100
AcDbEntity
62
7
8
HANDALSTONE_pc116
100
AcDbLine
10
53
20
18.24998
30
0.0
11
26.5
21
25.25
31
0.0
0
LINE
100
AcDbEntity
62
7
8
HANDALSTONE_pc116
100
AcDbLine
10
26.5
20
25.25
30
0.0
11
0
21
18.24998
31
0.0
0
LINE
100
AcDbEntity
62
7
8
HANDALSTONE_pc116
100
AcDbLine
10
0
20
18.24998
30
0.0
11
0
21
15.24998
31
0.0
0
LINE
100
AcDbEntity
62
7
8
HANDALSTONE_pc116
100
AcDbLine
10
0
20
15.24998
30
0.0
11
0.0771
21
15.24901
31
0.0
0
LINE
100
AcDbEntity
62
7
8
HANDALSTONE_pc116
100
AcDbLine
10
0.0771
20
15.24901
30
0.0
11
0.1529
21
15.24608
31
0.0
0
LINE
100
AcDbEntity
62
7
8
HANDALSTONE_pc116
100
AcDbLine
10
0.1529
20
15.24608
30
0.0
11
0.2276
21
15.24124
31
0.0
0
LINE
100
AcDbEntity
62
7
8
HANDALSTONE_pc116
100
AcDbLine
10
0.2276
20
15.24124
30
0.0
11
0.3011
21
15.2345
31
0.0
0
LINE
100
AcDbEntity
62
7
8
HANDALSTONE_pc116
100
AcDbLine
10
0.3011
20
15.2345
30
0.0
11
0.3734
21
15.22588
31
0.0
0
LINE
100
AcDbEntity
62
7
8
HANDALSTONE_pc116
100
AcDbLine
10
0.3734
20
15.22588
30
0.0
11
0.4444
21
15.21541
31
0.0
0
LINE
100
AcDbEntity
62
7
8
HANDALSTONE_pc116
100
AcDbLine
10
0.4444
20
15.21541
30
0.0
11
0.5143
21
15.20312
31
0.0
0
LINE
100
AcDbEntity
62
7
8
HANDALSTONE_pc116
100
AcDbLine
10
0.5143
20
15.20312
30
0.0
11
0.583
21
15.18903
31
0.0
0
LINE
100
AcDbEntity
62
7
8
HANDALSTONE_pc116
100
AcDbLine
10
0.583
20
15.18903
30
0.0
11
0.6505
21
15.17316
31
0.0
0
LINE
100
AcDbEntity
62
7
8
HANDALSTONE_pc116
100
AcDbLine
10
0.6505
20
15.17316
30
0.0
11
0.7169
21
15.15552
31
0.0
0
LINE
100
AcDbEntity
62
7
8
HANDALSTONE_pc116
100
AcDbLine
10
0.7169
20
15.15552
30
0.0
11
0.782
21
15.13615
31
0.0
0
LINE
100
AcDbEntity
62
7
8
HANDALSTONE_pc116
100
AcDbLine
10
0.782
20
15.13615
30
0.0
11
0.8459
21
15.11508
31
0.0
0
LINE
100
AcDbEntity
62
7
8
HANDALSTONE_pc116
100
AcDbLine
10
0.8459
20
15.11508
30
0.0
11
0.9086
21
15.09233
31
0.0
0
LINE
100
AcDbEntity
62
7
8
HANDALSTONE_pc116
100
AcDbLine
10
0.9086
20
15.09233
30
0.0
11
0.9701
21
15.06792
31
0.0
0
LINE
100
AcDbEntity
62
7
8
HANDALSTONE_pc116
100
AcDbLine
10
0.9701
20
15.06792
30
0.0
11
1.0304
21
15.04185
31
0.0
0
LINE
100
AcDbEntity
62
7
8
HANDALSTONE_pc116
100
AcDbLine
10
1.0304
20
15.04185
30
0.0
11
1.0895
21
15.01419
31
0.0
0
LINE
100
AcDbEntity
62
7
8
HANDALSTONE_pc116
100
AcDbLine
10
1.0895
20
15.01419
30
0.0
11
1.1474
21
14.98492
31
0.0
0
LINE
100
AcDbEntity
62
7
8
HANDALSTONE_pc116
100
AcDbLine
10
1.1474
20
14.98492
30
0.0
11
1.2041
21
14.9541
31
0.0
0
LINE
100
AcDbEntity
62
7
8
HANDALSTONE_pc116
100
AcDbLine
10
1.2041
20
14.9541
30
0.0
11
1.2596
21
14.92174
31
0.0
0
LINE
100
AcDbEntity
62
7
8
HANDALSTONE_pc116
100
AcDbLine
10
1.2596
20
14.92174
30
0.0
11
1.3139
21
14.88785
31
0.0
0
LINE
100
AcDbEntity
62
7
8
HANDALSTONE_pc116
100
AcDbLine
10
1.3139
20
14.88785
30
0.0
11
1.367
21
14.85246
31
0.0
0
LINE
100
AcDbEntity
62
7
8
HANDALSTONE_pc116
100
AcDbLine
10
1.367
20
14.85246
30
0.0
11
1.4189
21
14.8156
31
0.0
0
LINE
100
AcDbEntity
62
7
8
HANDALSTONE_pc116
100
AcDbLine
10
1.4189
20
14.8156
30
0.0
11
1.4695
21
14.7773
31
0.0
0
LINE
100
AcDbEntity
62
7
8
HANDALSTONE_pc116
100
AcDbLine
10
1.4695
20
14.7773
30
0.0
11
1.519
21
14.73756
31
0.0
0
LINE
100
AcDbEntity
62
7
8
HANDALSTONE_pc116
100
AcDbLine
10
1.519
20
14.73756
30
0.0
11
1.5673
21
14.69643
31
0.0
0
LINE
100
AcDbEntity
62
7
8
HANDALSTONE_pc116
100
AcDbLine
10
1.5673
20
14.69643
30
0.0
11
1.6143
21
14.65392
31
0.0
0
LINE
100
AcDbEntity
62
7
8
HANDALSTONE_pc116
100
AcDbLine
10
1.6143
20
14.65392
30
0.0
11
1.6602
21
14.61005
31
0.0
0
LINE
100
AcDbEntity
62
7
8
HANDALSTONE_pc116
100
AcDbLine
10
1.6602
20
14.61005
30
0.0
11
1.7048
21
14.56483
31
0.0
0
LINE
100
AcDbEntity
62
7
8
HANDALSTONE_pc116
100
AcDbLine
10
1.7048
20
14.56483
30
0.0
11
1.7482
21
14.51833
31
0.0
0
LINE
100
AcDbEntity
62
7
8
HANDALSTONE_pc116
100
AcDbLine
10
1.7482
20
14.51833
30
0.0
11
1.7904
21
14.47054
31
0.0
0
TEXT
100
AcDbEntity
8
HANDALSTONE_pc116
100
AcDbText
10
0
20
-3
30
0
1
PC116 Front
40
2
0
TEXT
100
AcDbEntity
8
HANDALSTONE_pc116
100
AcDbText
10
0
20
-5.25
30
0
1
(53" x 25.25")
40
1.5
0
LINE
100
AcDbEntity
62
7
8
HANDALSTONE_pc116
100
AcDbLine
10
84.516
20
12.24999
30
0.0
11
84.516
21
0.00001
31
0.0
0
LINE
100
AcDbEntity
62
7
8
HANDALSTONE_pc116
100
AcDbLine
10
58
20
18.25
30
0.0
11
111
21
18.25
31
0.0
0
LINE
100
AcDbEntity
62
7
8
HANDALSTONE_pc116
100
AcDbLine
10
60.5
20
12.24999
30
0.0
11
108.5
21
12.24999
31
0.0
0
LINE
100
AcDbEntity
62
7
8
HANDALSTONE_pc116
100
AcDbLine
10
84.516
20
4.35146
30
0.0
11
102.55689
21
4.35146
31
0.0
0
LINE
100
AcDbEntity
62
7
8
HANDALSTONE_pc116
100
AcDbLine
10
58
20
15.25
30
0.0
11
110.92281
21
15.25
31
0.0
0
LINE
100
AcDbEntity
62
7
8
HANDALSTONE_pc116
100
AcDbLine
10
84.516
20
9.64954
30
0.0
11
107.49528
21
9.64954
31
0.0
0
LINE
100
AcDbEntity
62
7
8
HANDALSTONE_pc116
100
AcDbLine
10
66.8662
20
2.50441
30
0.0
11
84.484
21
2.50441
31
0.0
0
LINE
100
AcDbEntity
62
7
8
HANDALSTONE_pc116
100
AcDbLine
10
66.4431
20
4.35146
30
0.0
11
84.484
21
4.35146
31
0.0
0
LINE
100
AcDbEntity
62
7
8
HANDALSTONE_pc116
100
AcDbLine
10
61.50471
20
9.64954
30
0.0
11
84.48399
21
9.64954
31
0.0
0
LINE
100
AcDbEntity
62
7
8
HANDALSTONE_pc116
100
AcDbLine
10
84.516
20
2.50441
30
0.0
11
102.1338
21
2.50441
31
0.0
0
LINE
100
AcDbEntity
62
7
8
HANDALSTONE_pc116
100
AcDbLine
10
58
20
15.25
30
0.0
11
58.077
21
15.24902
31
0.0
0
LINE
100
AcDbEntity
62
7
8
HANDALSTONE_pc116
100
AcDbLine
10
58.0771
20
15.24902
30
0.0
11
58.1529
21
15.24609
31
0.0
0
LINE
100
AcDbEntity
62
7
8
HANDALSTONE_pc116
100
AcDbLine
10
58.1529
20
15.24609
30
0.0
11
58.2276
21
15.24125
31
0.0
0
LINE
100
AcDbEntity
62
7
8
HANDALSTONE_pc116
100
AcDbLine
10
58.2276
20
15.24125
30
0.0
11
58.3011
21
15.23451
31
0.0
0
LINE
100
AcDbEntity
62
7
8
HANDALSTONE_pc116
100
AcDbLine
10
58.3011
20
15.23451
30
0.0
11
58.3734
21
15.22589
31
0.0
0
LINE
100
AcDbEntity
62
7
8
HANDALSTONE_pc116
100
AcDbLine
10
58.3734
20
15.22589
30
0.0
11
58.4444
21
15.21542
31
0.0
0
LINE
100
AcDbEntity
62
7
8
HANDALSTONE_pc116
100
AcDbLine
10
58.4444
20
15.21542
30
0.0
11
58.5143
21
15.20313
31
0.0
0
LINE
100
AcDbEntity
62
7
8
HANDALSTONE_pc116
100
AcDbLine
10
58.5143
20
15.20313
30
0.0
11
58.583
21
15.18904
31
0.0
0
LINE
100
AcDbEntity
62
7
8
HANDALSTONE_pc116
100
AcDbLine
10
58.583
20
15.18904
30
0.0
11
58.6505
21
15.17317
31
0.0
0
LINE
100
AcDbEntity
62
7
8
HANDALSTONE_pc116
100
AcDbLine
10
58.6505
20
15.17317
30
0.0
11
58.7169
21
15.15553
31
0.0
0
LINE
100
AcDbEntity
62
7
8
HANDALSTONE_pc116
100
AcDbLine
10
58.7169
20
15.15553
30
0.0
11
58.782
21
15.13616
31
0.0
0
LINE
100
AcDbEntity
62
7
8
HANDALSTONE_pc116
100
AcDbLine
10
58.782
20
15.13616
30
0.0
11
58.8459
21
15.11509
31
0.0
0
LINE
100
AcDbEntity
62
7
8
HANDALSTONE_pc116
100
AcDbLine
10
58.8459
20
15.11509
30
0.0
11
58.9086
21
15.09234
31
0.0
0
LINE
100
AcDbEntity
62
7
8
HANDALSTONE_pc116
100
AcDbLine
10
58.9086
20
15.09234
30
0.0
11
58.9701
21
15.06793
31
0.0
0
LINE
100
AcDbEntity
62
7
8
HANDALSTONE_pc116
100
AcDbLine
10
58.9701
20
15.06793
30
0.0
11
59.0304
21
15.04186
31
0.0
0
LINE
100
AcDbEntity
62
7
8
HANDALSTONE_pc116
100
AcDbLine
10
59.0304
20
15.04186
30
0.0
11
59.0895
21
15.0142
31
0.0
0
LINE
100
AcDbEntity
62
7
8
HANDALSTONE_pc116
100
AcDbLine
10
59.0895
20
15.0142
30
0.0
11
59.1474
21
14.98493
31
0.0
0
LINE
100
AcDbEntity
62
7
8
HANDALSTONE_pc116
100
AcDbLine
10
59.1474
20
14.98493
30
0.0
11
59.2041
21
14.95411
31
0.0
0
LINE
100
AcDbEntity
62
7
8
HANDALSTONE_pc116
100
AcDbLine
10
59.2041
20
14.95411
30
0.0
11
59.2596
21
14.92175
31
0.0
0
LINE
100
AcDbEntity
62
7
8
HANDALSTONE_pc116
100
AcDbLine
10
59.2596
20
14.92175
30
0.0
11
59.3139
21
14.88786
31
0.0
0
LINE
100
AcDbEntity
62
7
8
HANDALSTONE_pc116
100
AcDbLine
10
59.3139
20
14.88786
30
0.0
11
59.367
21
14.85247
31
0.0
0
LINE
100
AcDbEntity
62
7
8
HANDALSTONE_pc116
100
AcDbLine
10
59.367
20
14.85247
30
0.0
11
59.4189
21
14.81561
31
0.0
0
LINE
100
AcDbEntity
62
7
8
HANDALSTONE_pc116
100
AcDbLine
10
59.4189
20
14.81561
30
0.0
11
59.4695
21
14.77731
31
0.0
0
LINE
100
AcDbEntity
62
7
8
HANDALSTONE_pc116
100
AcDbLine
10
59.4695
20
14.77731
30
0.0
11
59.519
21
14.73757
31
0.0
0
LINE
100
AcDbEntity
62
7
8
HANDALSTONE_pc116
100
AcDbLine
10
59.519
20
14.73757
30
0.0
11
59.5673
21
14.69644
31
0.0
0
LINE
100
AcDbEntity
62
7
8
HANDALSTONE_pc116
100
AcDbLine
10
59.5673
20
14.69644
30
0.0
11
59.6143
21
14.65393
31
0.0
0
LINE
100
AcDbEntity
62
7
8
HANDALSTONE_pc116
100
AcDbLine
10
59.6143
20
14.65393
30
0.0
11
59.6602
21
14.61006
31
0.0
0
LINE
100
AcDbEntity
62
7
8
HANDALSTONE_pc116
100
AcDbLine
10
59.6602
20
14.61006
30
0.0
11
59.7048
21
14.56484
31
0.0
0
LINE
100
AcDbEntity
62
7
8
HANDALSTONE_pc116
100
AcDbLine
10
59.7048
20
14.56484
30
0.0
11
59.7482
21
14.51834
31
0.0
0
LINE
100
AcDbEntity
62
7
8
HANDALSTONE_pc116
100
AcDbLine
10
59.7482
20
14.51834
30
0.0
11
59.7904
21
14.47055
31
0.0
0
LINE
100
AcDbEntity
62
7
8
HANDALSTONE_pc116
100
AcDbLine
10
59.7904
20
14.47055
30
0.0
11
59.8314
21
14.4215
31
0.0
0
LINE
100
AcDbEntity
62
7
8
HANDALSTONE_pc116
100
AcDbLine
10
59.8314
20
14.4215
30
0.0
11
59.8712
21
14.37121
31
0.0
0
LINE
100
AcDbEntity
62
7
8
HANDALSTONE_pc116
100
AcDbLine
10
59.8712
20
14.37121
30
0.0
11
59.9098
21
14.31971
31
0.0
0
LINE
100
AcDbEntity
62
7
8
HANDALSTONE_pc116
100
AcDbLine
10
59.9098
20
14.31971
30
0.0
11
59.9472
21
14.26701
31
0.0
0
LINE
100
AcDbEntity
62
7
8
HANDALSTONE_pc116
100
AcDbLine
10
59.9472
20
14.26701
30
0.0
11
59.9833
21
14.21316
31
0.0
0
LINE
100
AcDbEntity
62
7
8
HANDALSTONE_pc116
100
AcDbLine
10
59.9833
20
14.21316
30
0.0
11
60.0182
21
14.15815
31
0.0
0
LINE
100
AcDbEntity
62
7
8
HANDALSTONE_pc116
100
AcDbLine
10
60.0182
20
14.15815
30
0.0
11
60.0519
21
14.10203
31
0.0
0
LINE
100
AcDbEntity
62
7
8
HANDALSTONE_pc116
100
AcDbLine
10
60.0519
20
14.10203
30
0.0
11
60.0844
21
14.04483
31
0.0
0
LINE
100
AcDbEntity
62
7
8
HANDALSTONE_pc116
100
AcDbLine
10
60.0844
20
14.04483
30
0.0
11
60.1157
21
13.98654
31
0.0
0
LINE
100
AcDbEntity
62
7
8
HANDALSTONE_pc116
100
AcDbLine
10
60.1157
20
13.98654
30
0.0
11
60.1458
21
13.9272
31
0.0
0
LINE
100
AcDbEntity
62
7
8
HANDALSTONE_pc116
100
AcDbLine
10
60.1458
20
13.9272
30
0.0
11
60.1746
21
13.86683
31
0.0
0
LINE
100
AcDbEntity
62
7
8
HANDALSTONE_pc116
100
AcDbLine
10
60.1746
20
13.86683
30
0.0
11
60.2023
21
13.80548
31
0.0
0
LINE
100
AcDbEntity
62
7
8
HANDALSTONE_pc116
100
AcDbLine
10
60.2023
20
13.80548
30
0.0
11
60.2287
21
13.74314
31
0.0
0
LINE
100
AcDbEntity
62
7
8
HANDALSTONE_pc116
100
AcDbLine
10
60.2287
20
13.74314
30
0.0
11
60.2538
21
13.67985
31
0.0
0
LINE
100
AcDbEntity
62
7
8
HANDALSTONE_pc116
100
AcDbLine
10
60.2538
20
13.67985
30
0.0
11
60.2778
21
13.61562
31
0.0
0
LINE
100
AcDbEntity
62
7
8
HANDALSTONE_pc116
100
AcDbLine
10
60.2778
20
13.61562
30
0.0
11
60.3005
21
13.5505
31
0.0
0
LINE
100
AcDbEntity
62
7
8
HANDALSTONE_pc116
100
AcDbLine
10
60.3005
20
13.5505
30
0.0
11
60.3221
21
13.48447
31
0.0
0
LINE
100
AcDbEntity
62
7
8
HANDALSTONE_pc116
100
AcDbLine
10
60.3221
20
13.48447
30
0.0
11
60.3423
21
13.41761
31
0.0
0
LINE
100
AcDbEntity
62
7
8
HANDALSTONE_pc116
100
AcDbLine
10
60.3423
20
13.41761
30
0.0
11
60.3614
21
13.34989
31
0.0
0
LINE
100
AcDbEntity
62
7
8
HANDALSTONE_pc116
100
AcDbLine
10
60.3614
20
13.34989
30
0.0
11
60.3792
21
13.28138
31
0.0
0
LINE
100
AcDbEntity
62
7
8
HANDALSTONE_pc116
100
AcDbLine
10
60.3792
20
13.28138
30
0.0
11
60.3959
21
13.21207
31
0.0
0
LINE
100
AcDbEntity
62
7
8
HANDALSTONE_pc116
100
AcDbLine
10
60.3959
20
13.21207
30
0.0
11
60.4113
21
13.14199
31
0.0
0
LINE
100
AcDbEntity
62
7
8
HANDALSTONE_pc116
100
AcDbLine
10
60.4113
20
13.14199
30
0.0
11
60.4254
21
13.07117
31
0.0
0
LINE
100
AcDbEntity
62
7
8
HANDALSTONE_pc116
100
AcDbLine
10
60.4254
20
13.07117
30
0.0
11
60.4384
21
12.99964
31
0.0
0
LINE
100
AcDbEntity
62
7
8
HANDALSTONE_pc116
100
AcDbLine
10
60.4384
20
12.99964
30
0.0
11
60.4501
21
12.9274
31
0.0
0
LINE
100
AcDbEntity
62
7
8
HANDALSTONE_pc116
100
AcDbLine
10
60.4501
20
12.9274
30
0.0
11
60.4605
21
12.85451
31
0.0
0
LINE
100
AcDbEntity
62
7
8
HANDALSTONE_pc116
100
AcDbLine
10
60.4605
20
12.85451
30
0.0
11
60.4698
21
12.78097
31
0.0
0
LINE
100
AcDbEntity
62
7
8
HANDALSTONE_pc116
100
AcDbLine
10
60.4698
20
12.78097
30
0.0
11
60.4778
21
12.70679
31
0.0
0
LINE
100
AcDbEntity
62
7
8
HANDALSTONE_pc116
100
AcDbLine
10
60.4778
20
12.70679
30
0.0
11
60.4846
21
12.63202
31
0.0
0
LINE
100
AcDbEntity
62
7
8
HANDALSTONE_pc116
100
AcDbLine
10
60.4846
20
12.63202
30
0.0
11
60.4901
21
12.55669
31
0.0
0
LINE
100
AcDbEntity
62
7
8
HANDALSTONE_pc116
100
AcDbLine
10
60.4901
20
12.55669
30
0.0
11
60.4944
21
12.48078
31
0.0
0
LINE
100
AcDbEntity
62
7
8
HANDALSTONE_pc116
100
AcDbLine
10
60.4944
20
12.48078
30
0.0
11
60.4975
21
12.40435
31
0.0
0
LINE
100
AcDbEntity
62
7
8
HANDALSTONE_pc116
100
AcDbLine
10
60.4975
20
12.40435
30
0.0
11
60.4994
21
12.32741
31
0.0
0
LINE
100
AcDbEntity
62
7
8
HANDALSTONE_pc116
100
AcDbLine
10
60.4994
20
12.32741
30
0.0
11
60.5
21
12.24999
31
0.0
0
LINE
100
AcDbEntity
62
7
8
HANDALSTONE_pc116
100
AcDbLine
10
60.5
20
12.24999
30
0.0
11
61.3998
21
9.75325
31
0.0
0
LINE
100
AcDbEntity
62
7
8
HANDALSTONE_pc116
100
AcDbLine
10
61.3998
20
9.75325
30
0.0
11
61.4068
21
9.73549
31
0.0
0
LINE
100
AcDbEntity
62
7
8
HANDALSTONE_pc116
100
AcDbLine
10
61.4068
20
9.73549
30
0.0
11
61.4165
21
9.71773
31
0.0
0
LINE
100
AcDbEntity
62
7
8
HANDALSTONE_pc116
100
AcDbLine
10
61.4165
20
9.71773
30
0.0
11
61.4287
21
9.70064
31
0.0
0
LINE
100
AcDbEntity
62
7
8
HANDALSTONE_pc116
100
AcDbLine
10
61.4287
20
9.70064
30
0.0
11
61.4425
21
9.68492
31
0.0
0
LINE
100
AcDbEntity
62
7
8
HANDALSTONE_pc116
100
AcDbLine
10
61.4425
20
9.68492
30
0.0
11
61.4577
21
9.67126
31
0.0
0
LINE
100
AcDbEntity
62
7
8
HANDALSTONE_pc116
100
AcDbLine
10
61.4577
20
9.67126
30
0.0
11
61.4734
21
9.66035
31
0.0
0
LINE
100
AcDbEntity
62
7
8
HANDALSTONE_pc116
100
AcDbLine
10
61.4734
20
9.66035
30
0.0
11
61.4814
21
9.65614
31
0.0
0
LINE
100
AcDbEntity
62
7
8
HANDALSTONE_pc116
100
AcDbLine
10
61.4814
20
9.65614
30
0.0
11
61.4893
21
9.65289
31
0.0
0
LINE
100
AcDbEntity
62
7
8
HANDALSTONE_pc116
100
AcDbLine
10
61.4893
20
9.65289
30
0.0
11
61.4971
21
9.65065
31
0.0
0
LINE
100
AcDbEntity
62
7
8
HANDALSTONE_pc116
100
AcDbLine
10
61.4971
20
9.65065
30
0.0
11
61.5047
21
9.64954
31
0.0
0
LINE
100
AcDbEntity
62
7
8
HANDALSTONE_pc116
100
AcDbLine
10
61.5047
20
9.64954
30
0.0
11
61.572
21
9.64348
31
0.0
0
LINE
100
AcDbEntity
62
7
8
HANDALSTONE_pc116
100
AcDbLine
10
61.572
20
9.64348
30
0.0
11
61.6447
21
9.63417
31
0.0
0
LINE
100
AcDbEntity
62
7
8
HANDALSTONE_pc116
100
AcDbLine
10
61.6447
20
9.63417
30
0.0
11
61.7224
21
9.62146
31
0.0
0
LINE
100
AcDbEntity
62
7
8
HANDALSTONE_pc116
100
AcDbLine
10
61.7224
20
9.62146
30
0.0
11
61.8046
21
9.60515
31
0.0
0
LINE
100
AcDbEntity
62
7
8
HANDALSTONE_pc116
100
AcDbLine
10
61.8046
20
9.60515
30
0.0
11
61.8909
21
9.58507
31
0.0
0
LINE
100
AcDbEntity
62
7
8
HANDALSTONE_pc116
100
AcDbLine
10
61.8909
20
9.58507
30
0.0
11
61.9355
21
9.57356
31
0.0
0
LINE
100
AcDbEntity
62
7
8
HANDALSTONE_pc116
100
AcDbLine
10
61.9355
20
9.57356
30
0.0
11
61.9808
21
9.56105
31
0.0
0
LINE
100
AcDbEntity
62
7
8
HANDALSTONE_pc116
100
AcDbLine
10
61.9808
20
9.56105
30
0.0
11
62.027
21
9.54752
31
0.0
0
LINE
100
AcDbEntity
62
7
8
HANDALSTONE_pc116
100
AcDbLine
10
62.027
20
9.54752
30
0.0
11
62.0739
21
9.53291
31
0.0
0
LINE
100
AcDbEntity
62
7
8
HANDALSTONE_pc116
100
AcDbLine
10
62.0739
20
9.53291
30
0.0
11
62.1215
21
9.51726
31
0.0
0
LINE
100
AcDbEntity
62
7
8
HANDALSTONE_pc116
100
AcDbLine
10
62.1215
20
9.51726
30
0.0
11
62.1698
21
9.50049
31
0.0
0
LINE
100
AcDbEntity
62
7
8
HANDALSTONE_pc116
100
AcDbLine
10
62.1698
20
9.50049
30
0.0
11
62.2186
21
9.4826
31
0.0
0
LINE
100
AcDbEntity
62
7
8
HANDALSTONE_pc116
100
AcDbLine
10
62.2186
20
9.4826
30
0.0
11
62.2679
21
9.46359
31
0.0
0
LINE
100
AcDbEntity
62
7
8
HANDALSTONE_pc116
100
AcDbLine
10
62.2679
20
9.46359
30
0.0
11
62.3176
21
9.44341
31
0.0
0
LINE
100
AcDbEntity
62
7
8
HANDALSTONE_pc116
100
AcDbLine
10
62.3176
20
9.44341
30
0.0
11
62.3678
21
9.42204
31
0.0
0
LINE
100
AcDbEntity
62
7
8
HANDALSTONE_pc116
100
AcDbLine
10
62.3678
20
9.42204
30
0.0
11
62.4183
21
9.39948
31
0.0
0
LINE
100
AcDbEntity
62
7
8
HANDALSTONE_pc116
100
AcDbLine
10
62.4183
20
9.39948
30
0.0
11
62.4691
21
9.37569
31
0.0
0
LINE
100
AcDbEntity
62
7
8
HANDALSTONE_pc116
100
AcDbLine
10
62.4691
20
9.37569
30
0.0
11
62.5202
21
9.35063
31
0.0
0
LINE
100
AcDbEntity
62
7
8
HANDALSTONE_pc116
100
AcDbLine
10
62.5202
20
9.35063
30
0.0
11
62.5714
21
9.32433
31
0.0
0
LINE
100
AcDbEntity
62
7
8
HANDALSTONE_pc116
100
AcDbLine
10
62.5714
20
9.32433
30
0.0
11
62.6227
21
9.29671
31
0.0
0
LINE
100
AcDbEntity
62
7
8
HANDALSTONE_pc116
100
AcDbLine
10
62.6227
20
9.29671
30
0.0
11
62.6742
21
9.26778
31
0.0
0
LINE
100
AcDbEntity
62
7
8
HANDALSTONE_pc116
100
AcDbLine
10
62.6742
20
9.26778
30
0.0
11
62.7256
21
9.23752
31
0.0
0
LINE
100
AcDbEntity
62
7
8
HANDALSTONE_pc116
100
AcDbLine
10
62.7256
20
9.23752
30
0.0
11
62.7769
21
9.2059
31
0.0
0
LINE
100
AcDbEntity
62
7
8
HANDALSTONE_pc116
100
AcDbLine
10
62.7769
20
9.2059
30
0.0
11
62.8282
21
9.1729
31
0.0
0
LINE
100
AcDbEntity
62
7
8
HANDALSTONE_pc116
100
AcDbLine
10
62.8282
20
9.1729
30
0.0
11
62.8793
21
9.13849
31
0.0
0
LINE
100
AcDbEntity
62
7
8
HANDALSTONE_pc116
100
AcDbLine
10
62.8793
20
9.13849
30
0.0
11
62.9302
21
9.10265
31
0.0
0
LINE
100
AcDbEntity
62
7
8
HANDALSTONE_pc116
100
AcDbLine
10
62.9302
20
9.10265
30
0.0
11
62.9808
21
9.06537
31
0.0
0
LINE
100
AcDbEntity
62
7
8
HANDALSTONE_pc116
100
AcDbLine
10
62.9808
20
9.06537
30
0.0
11
63.0311
21
9.02663
31
0.0
0
LINE
100
AcDbEntity
62
7
8
HANDALSTONE_pc116
100
AcDbLine
10
63.0311
20
9.02663
30
0.0
11
63.0811
21
8.98637
31
0.0
0
LINE
100
AcDbEntity
62
7
8
HANDALSTONE_pc116
100
AcDbLine
10
63.0811
20
8.98637
30
0.0
11
63.1305
21
8.94463
31
0.0
0
LINE
100
AcDbEntity
62
7
8
HANDALSTONE_pc116
100
AcDbLine
10
63.1305
20
8.94463
30
0.0
11
63.1795
21
8.90134
31
0.0
0
LINE
100
AcDbEntity
62
7
8
HANDALSTONE_pc116
100
AcDbLine
10
63.1795
20
8.90134
30
0.0
11
63.228
21
8.85649
31
0.0
0
LINE
100
AcDbEntity
62
7
8
HANDALSTONE_pc116
100
AcDbLine
10
63.228
20
8.85649
30
0.0
11
63.2758
21
8.81006
31
0.0
0
LINE
100
AcDbEntity
62
7
8
HANDALSTONE_pc116
100
AcDbLine
10
63.2758
20
8.81006
30
0.0
11
63.323
21
8.76204
31
0.0
0
LINE
100
AcDbEntity
62
7
8
HANDALSTONE_pc116
100
AcDbLine
10
63.323
20
8.76204
30
0.0
11
63.3694
21
8.71239
31
0.0
0
LINE
100
AcDbEntity
62
7
8
HANDALSTONE_pc116
100
AcDbLine
10
63.3694
20
8.71239
30
0.0
11
63.4151
21
8.66109
31
0.0
0
LINE
100
AcDbEntity
62
7
8
HANDALSTONE_pc116
100
AcDbLine
10
63.4151
20
8.66109
30
0.0
11
63.4599
21
8.60812
31
0.0
0
LINE
100
AcDbEntity
62
7
8
HANDALSTONE_pc116
100
AcDbLine
10
63.4599
20
8.60812
30
0.0
11
63.5039
21
8.55347
31
0.0
0
LINE
100
AcDbEntity
62
7
8
HANDALSTONE_pc116
100
AcDbLine
10
63.5039
20
8.55347
30
0.0
11
63.5469
21
8.4971
31
0.0
0
LINE
100
AcDbEntity
62
7
8
HANDALSTONE_pc116
100
AcDbLine
10
63.5469
20
8.4971
30
0.0
11
63.5889
21
8.43901
31
0.0
0
LINE
100
AcDbEntity
62
7
8
HANDALSTONE_pc116
100
AcDbLine
10
63.5889
20
8.43901
30
0.0
11
63.6298
21
8.37915
31
0.0
0
LINE
100
AcDbEntity
62
7
8
HANDALSTONE_pc116
100
AcDbLine
10
63.6298
20
8.37915
30
0.0
11
63.6697
21
8.31752
31
0.0
0
LINE
100
AcDbEntity
62
7
8
HANDALSTONE_pc116
100
AcDbLine
10
63.6697
20
8.31752
30
0.0
11
63.7083
21
8.25409
31
0.0
0
LINE
100
AcDbEntity
62
7
8
HANDALSTONE_pc116
100
AcDbLine
10
63.7083
20
8.25409
30
0.0
11
63.7458
21
8.18884
31
0.0
0
LINE
100
AcDbEntity
62
7
8
HANDALSTONE_pc116
100
AcDbLine
10
63.7458
20
8.18884
30
0.0
11
63.782
21
8.12175
31
0.0
0
LINE
100
AcDbEntity
62
7
8
HANDALSTONE_pc116
100
AcDbLine
10
63.782
20
8.12175
30
0.0
11
63.8168
21
8.0528
31
0.0
0
LINE
100
AcDbEntity
62
7
8
HANDALSTONE_pc116
100
AcDbLine
10
63.8168
20
8.0528
30
0.0
11
63.8502
21
7.98195
31
0.0
0
LINE
100
AcDbEntity
62
7
8
HANDALSTONE_pc116
100
AcDbLine
10
63.8502
20
7.98195
30
0.0
11
63.8822
21
7.90919
31
0.0
0
LINE
100
AcDbEntity
62
7
8
HANDALSTONE_pc116
100
AcDbLine
10
63.8822
20
7.90919
30
0.0
11
63.9127
21
7.8345
31
0.0
0
LINE
100
AcDbEntity
62
7
8
HANDALSTONE_pc116
100
AcDbLine
10
63.9127
20
7.8345
30
0.0
11
63.9417
21
7.75787
31
0.0
0
LINE
100
AcDbEntity
62
7
8
HANDALSTONE_pc116
100
AcDbLine
10
63.9417
20
7.75787
30
0.0
11
63.969
21
7.67924
31
0.0
0
LINE
100
AcDbEntity
62
7
8
HANDALSTONE_pc116
100
AcDbLine
10
63.969
20
7.67924
30
0.0
11
63.9946
21
7.59863
31
0.0
0
LINE
100
AcDbEntity
62
7
8
HANDALSTONE_pc116
100
AcDbLine
10
63.9946
20
7.59863
30
0.0
11
64.0185
21
7.51601
31
0.0
0
LINE
100
AcDbEntity
62
7
8
HANDALSTONE_pc116
100
AcDbLine
10
64.0185
20
7.51601
30
0.0
11
64.0407
21
7.43134
31
0.0
0
LINE
100
AcDbEntity
62
7
8
HANDALSTONE_pc116
100
AcDbLine
10
64.0407
20
7.43134
30
0.0
11
64.061
21
7.3446
31
0.0
0
LINE
100
AcDbEntity
62
7
8
HANDALSTONE_pc116
100
AcDbLine
10
64.061
20
7.3446
30
0.0
11
64.0794
21
7.25578
31
0.0
0
LINE
100
AcDbEntity
62
7
8
HANDALSTONE_pc116
100
AcDbLine
10
64.0794
20
7.25578
30
0.0
11
64.0958
21
7.16486
31
0.0
0
LINE
100
AcDbEntity
62
7
8
HANDALSTONE_pc116
100
AcDbLine
10
64.0958
20
7.16486
30
0.0
11
64.1102
21
7.07179
31
0.0
0
LINE
100
AcDbEntity
62
7
8
HANDALSTONE_pc116
100
AcDbLine
10
64.1102
20
7.07179
30
0.0
11
64.1371
21
6.86525
31
0.0
0
LINE
100
AcDbEntity
62
7
8
HANDALSTONE_pc116
100
AcDbLine
10
64.1371
20
6.86525
30
0.0
11
64.1539
21
6.75713
31
0.0
0
LINE
100
AcDbEntity
62
7
8
HANDALSTONE_pc116
100
AcDbLine
10
64.1539
20
6.75713
30
0.0
11
64.1729
21
6.65218
31
0.0
0
LINE
100
AcDbEntity
62
7
8
HANDALSTONE_pc116
100
AcDbLine
10
64.1729
20
6.65218
30
0.0
11
64.1942
21
6.55035
31
0.0
0
LINE
100
AcDbEntity
62
7
8
HANDALSTONE_pc116
100
AcDbLine
10
64.1942
20
6.55035
30
0.0
11
64.2175
21
6.4516
31
0.0
0
LINE
100
AcDbEntity
62
7
8
HANDALSTONE_pc116
100
AcDbLine
10
64.2175
20
6.4516
30
0.0
11
64.2429
21
6.35588
31
0.0
0
LINE
100
AcDbEntity
62
7
8
HANDALSTONE_pc116
100
AcDbLine
10
64.2429
20
6.35588
30
0.0
11
64.2702
21
6.26314
31
0.0
0
LINE
100
AcDbEntity
62
7
8
HANDALSTONE_pc116
100
AcDbLine
10
64.2702
20
6.26314
30
0.0
11
64.2994
21
6.17332
31
0.0
0
LINE
100
AcDbEntity
62
7
8
HANDALSTONE_pc116
100
AcDbLine
10
64.2994
20
6.17332
30
0.0
11
64.3304
21
6.0864
31
0.0
0
LINE
100
AcDbEntity
62
7
8
HANDALSTONE_pc116
100
AcDbLine
10
64.3304
20
6.0864
30
0.0
11
64.3632
21
6.0023
31
0.0
0
LINE
100
AcDbEntity
62
7
8
HANDALSTONE_pc116
100
AcDbLine
10
64.3632
20
6.0023
30
0.0
11
64.3976
21
5.92097
31
0.0
0
LINE
100
AcDbEntity
62
7
8
HANDALSTONE_pc116
100
AcDbLine
10
64.3976
20
5.92097
30
0.0
11
64.4336
21
5.84241
31
0.0
0
LINE
100
AcDbEntity
62
7
8
HANDALSTONE_pc116
100
AcDbLine
10
64.4336
20
5.84241
30
0.0
11
64.4711
21
5.76651
31
0.0
0
LINE
100
AcDbEntity
62
7
8
HANDALSTONE_pc116
100
AcDbLine
10
64.4711
20
5.76651
30
0.0
11
64.51
21
5.69324
31
0.0
0
LINE
100
AcDbEntity
62
7
8
HANDALSTONE_pc116
100
AcDbLine
10
64.51
20
5.69324
30
0.0
11
64.5502
21
5.62257
31
0.0
0
LINE
100
AcDbEntity
62
7
8
HANDALSTONE_pc116
100
AcDbLine
10
64.5502
20
5.62257
30
0.0
11
64.5918
21
5.55444
31
0.0
0
LINE
100
AcDbEntity
62
7
8
HANDALSTONE_pc116
100
AcDbLine
10
64.5918
20
5.55444
30
0.0
11
64.6346
21
5.4888
31
0.0
0
LINE
100
AcDbEntity
62
7
8
HANDALSTONE_pc116
100
AcDbLine
10
64.6346
20
5.4888
30
0.0
11
64.6784
21
5.4256
31
0.0
0
LINE
100
AcDbEntity
62
7
8
HANDALSTONE_pc116
100
AcDbLine
10
64.6784
20
5.4256
30
0.0
11
64.7234
21
5.36479
31
0.0
0
LINE
100
AcDbEntity
62
7
8
HANDALSTONE_pc116
100
AcDbLine
10
64.7234
20
5.36479
30
0.0
11
64.7693
21
5.30634
31
0.0
0
LINE
100
AcDbEntity
62
7
8
HANDALSTONE_pc116
100
AcDbLine
10
64.7693
20
5.30634
30
0.0
11
64.8161
21
5.25017
31
0.0
0
LINE
100
AcDbEntity
62
7
8
HANDALSTONE_pc116
100
AcDbLine
10
64.8161
20
5.25017
30
0.0
11
64.8638
21
5.19624
31
0.0
0
LINE
100
AcDbEntity
62
7
8
HANDALSTONE_pc116
100
AcDbLine
10
64.8638
20
5.19624
30
0.0
11
64.9122
21
5.14452
31
0.0
0
LINE
100
AcDbEntity
62
7
8
HANDALSTONE_pc116
100
AcDbLine
10
64.9122
20
5.14452
30
0.0
11
64.9613
21
5.09496
31
0.0
0
LINE
100
AcDbEntity
62
7
8
HANDALSTONE_pc116
100
AcDbLine
10
64.9613
20
5.09496
30
0.0
11
65.011
21
5.04747
31
0.0
0
LINE
100
AcDbEntity
62
7
8
HANDALSTONE_pc116
100
AcDbLine
10
65.011
20
5.04747
30
0.0
11
65.0612
21
5.00206
31
0.0
0
LINE
100
AcDbEntity
62
7
8
HANDALSTONE_pc116
100
AcDbLine
10
65.0612
20
5.00206
30
0.0
11
65.1119
21
4.95863
31
0.0
0
LINE
100
AcDbEntity
62
7
8
HANDALSTONE_pc116
100
AcDbLine
10
65.1119
20
4.95863
30
0.0
11
65.163
21
4.91718
31
0.0
0
LINE
100
AcDbEntity
62
7
8
HANDALSTONE_pc116
100
AcDbLine
10
65.163
20
4.91718
30
0.0
11
65.2144
21
4.87761
31
0.0
0
LINE
100
AcDbEntity
62
7
8
HANDALSTONE_pc116
100
AcDbLine
10
65.2144
20
4.87761
30
0.0
11
65.266
21
4.8399
31
0.0
0
LINE
100
AcDbEntity
62
7
8
HANDALSTONE_pc116
100
AcDbLine
10
65.266
20
4.8399
30
0.0
11
65.3177
21
4.80402
31
0.0
0
LINE
100
AcDbEntity
62
7
8
HANDALSTONE_pc116
100
AcDbLine
10
65.3177
20
4.80402
30
0.0
11
65.3696
21
4.76988
31
0.0
0
LINE
100
AcDbEntity
62
7
8
HANDALSTONE_pc116
100
AcDbLine
10
65.3696
20
4.76988
30
0.0
11
65.4214
21
4.73746
31
0.0
0
LINE
100
AcDbEntity
62
7
8
HANDALSTONE_pc116
100
AcDbLine
10
65.4214
20
4.73746
30
0.0
11
65.4732
21
4.7067
31
0.0
0
LINE
100
AcDbEntity
62
7
8
HANDALSTONE_pc116
100
AcDbLine
10
65.4732
20
4.7067
30
0.0
11
65.5248
21
4.67754
31
0.0
0
LINE
100
AcDbEntity
62
7
8
HANDALSTONE_pc116
100
AcDbLine
10
65.5248
20
4.67754
30
0.0
11
65.5762
21
4.64995
31
0.0
0
LINE
100
AcDbEntity
62
7
8
HANDALSTONE_pc116
100
AcDbLine
10
65.5762
20
4.64995
30
0.0
11
65.6274
21
4.62387
31
0.0
0
LINE
100
AcDbEntity
62
7
8
HANDALSTONE_pc116
100
AcDbLine
10
65.6274
20
4.62387
30
0.0
11
65.6781
21
4.59927
31
0.0
0
LINE
100
AcDbEntity
62
7
8
HANDALSTONE_pc116
100
AcDbLine
10
65.6781
20
4.59927
30
0.0
11
65.7284
21
4.57608
31
0.0
0
LINE
100
AcDbEntity
62
7
8
HANDALSTONE_pc116
100
AcDbLine
10
65.7284
20
4.57608
30
0.0
11
65.7782
21
4.55426
31
0.0
0
LINE
100
AcDbEntity
62
7
8
HANDALSTONE_pc116
100
AcDbLine
10
65.7782
20
4.55426
30
0.0
11
65.8274
21
4.53375
31
0.0
0
LINE
100
AcDbEntity
62
7
8
HANDALSTONE_pc116
100
AcDbLine
10
65.8274
20
4.53375
30
0.0
11
65.8759
21
4.51453
31
0.0
0
LINE
100
AcDbEntity
62
7
8
HANDALSTONE_pc116
100
AcDbLine
10
65.8759
20
4.51453
30
0.0
11
65.9237
21
4.49652
31
0.0
0
LINE
100
AcDbEntity
62
7
8
HANDALSTONE_pc116
100
AcDbLine
10
65.9237
20
4.49652
30
0.0
11
65.9707
21
4.47968
31
0.0
0
LINE
100
AcDbEntity
62
7
8
HANDALSTONE_pc116
100
AcDbLine
10
65.9707
20
4.47968
30
0.0
11
66.0619
21
4.44934
31
0.0
0
LINE
100
AcDbEntity
62
7
8
HANDALSTONE_pc116
100
AcDbLine
10
66.0619
20
4.44934
30
0.0
11
66.1488
21
4.42311
31
0.0
0
LINE
100
AcDbEntity
62
7
8
HANDALSTONE_pc116
100
AcDbLine
10
66.1488
20
4.42311
30
0.0
11
66.2311
21
4.40059
31
0.0
0
LINE
100
AcDbEntity
62
7
8
HANDALSTONE_pc116
100
AcDbLine
10
66.2311
20
4.40059
30
0.0
11
66.3079
21
4.38141
31
0.0
0
LINE
100
AcDbEntity
62
7
8
HANDALSTONE_pc116
100
AcDbLine
10
66.3079
20
4.38141
30
0.0
11
66.3788
21
4.36516
31
0.0
0
LINE
100
AcDbEntity
62
7
8
HANDALSTONE_pc116
100
AcDbLine
10
66.3788
20
4.36516
30
0.0
11
66.4431
21
4.35146
31
0.0
0
LINE
100
AcDbEntity
62
7
8
HANDALSTONE_pc116
100
AcDbLine
10
66.4431
20
4.35146
30
0.0
11
66.5495
21
4.33014
31
0.0
0
LINE
100
AcDbEntity
62
7
8
HANDALSTONE_pc116
100
AcDbLine
10
66.5495
20
4.33014
30
0.0
11
66.5905
21
4.32173
31
0.0
0
LINE
100
AcDbEntity
62
7
8
HANDALSTONE_pc116
100
AcDbLine
10
66.5905
20
4.32173
30
0.0
11
66.6225
21
4.31433
31
0.0
0
LINE
100
AcDbEntity
62
7
8
HANDALSTONE_pc116
100
AcDbLine
10
66.6225
20
4.31433
30
0.0
11
66.6635
21
4.30237
31
0.0
0
LINE
100
AcDbEntity
62
7
8
HANDALSTONE_pc116
100
AcDbLine
10
66.6635
20
4.30237
30
0.0
11
66.6814
21
4.29602
31
0.0
0
LINE
100
AcDbEntity
62
7
8
HANDALSTONE_pc116
100
AcDbLine
10
66.6814
20
4.29602
30
0.0
11
66.6976
21
4.2894
31
0.0
0
LINE
100
AcDbEntity
62
7
8
HANDALSTONE_pc116
100
AcDbLine
10
66.6976
20
4.2894
30
0.0
11
66.7122
21
4.28249
31
0.0
0
LINE
100
AcDbEntity
62
7
8
HANDALSTONE_pc116
100
AcDbLine
10
66.7122
20
4.28249
30
0.0
11
66.7252
21
4.27528
31
0.0
0
LINE
100
AcDbEntity
62
7
8
HANDALSTONE_pc116
100
AcDbLine
10
66.7252
20
4.27528
30
0.0
11
66.7367
21
4.26775
31
0.0
0
LINE
100
AcDbEntity
62
7
8
HANDALSTONE_pc116
100
AcDbLine
10
66.7367
20
4.26775
30
0.0
11
66.7467
21
4.25989
31
0.0
0
LINE
100
AcDbEntity
62
7
8
HANDALSTONE_pc116
100
AcDbLine
10
66.7467
20
4.25989
30
0.0
11
66.7553
21
4.25166
31
0.0
0
LINE
100
AcDbEntity
62
7
8
HANDALSTONE_pc116
100
AcDbLine
10
66.7553
20
4.25166
30
0.0
11
66.7625
21
4.24307
31
0.0
0
LINE
100
AcDbEntity
62
7
8
HANDALSTONE_pc116
100
AcDbLine
10
66.7625
20
4.24307
30
0.0
11
66.7684
21
4.2341
31
0.0
0
LINE
100
AcDbEntity
62
7
8
HANDALSTONE_pc116
100
AcDbLine
10
66.7684
20
4.2341
30
0.0
11
66.773
21
4.22472
31
0.0
0
LINE
100
AcDbEntity
62
7
8
HANDALSTONE_pc116
100
AcDbLine
10
66.773
20
4.22472
30
0.0
11
66.7763
21
4.2149
31
0.0
0
LINE
100
AcDbEntity
62
7
8
HANDALSTONE_pc116
100
AcDbLine
10
66.7763
20
4.2149
30
0.0
11
66.7785
21
4.20467
31
0.0
0
LINE
100
AcDbEntity
62
7
8
HANDALSTONE_pc116
100
AcDbLine
10
66.7785
20
4.20467
30
0.0
11
66.7795
21
4.19397
31
0.0
0
LINE
100
AcDbEntity
62
7
8
HANDALSTONE_pc116
100
AcDbLine
10
66.7795
20
4.19397
30
0.0
11
66.7795
21
2.5971
31
0.0
0
LINE
100
AcDbEntity
62
7
8
HANDALSTONE_pc116
100
AcDbLine
10
66.7795
20
2.5971
30
0.0
11
66.78
21
2.5921
31
0.0
0
LINE
100
AcDbEntity
62
7
8
HANDALSTONE_pc116
100
AcDbLine
10
66.78
20
2.5921
30
0.0
11
66.7814
21
2.5873
31
0.0
0
LINE
100
AcDbEntity
62
7
8
HANDALSTONE_pc116
100
AcDbLine
10
66.7814
20
2.5873
30
0.0
11
66.7838
21
2.583
31
0.0
0
LINE
100
AcDbEntity
62
7
8
HANDALSTONE_pc116
100
AcDbLine
10
66.7838
20
2.583
30
0.0
11
66.7872
21
2.5792
31
0.0
0
LINE
100
AcDbEntity
62
7
8
HANDALSTONE_pc116
100
AcDbLine
10
66.7872
20
2.5792
30
0.0
11
66.8662
21
2.5044
31
0.0
0
LINE
100
AcDbEntity
62
7
8
HANDALSTONE_pc116
100
AcDbLine
10
66.8662
20
2.5044
30
0.0
11
66.9536
21
2.4221
31
0.0
0
LINE
100
AcDbEntity
62
7
8
HANDALSTONE_pc116
100
AcDbLine
10
66.9536
20
2.4221
30
0.0
11
67.0475
21
2.3313
31
0.0
0
LINE
100
AcDbEntity
62
7
8
HANDALSTONE_pc116
100
AcDbLine
10
67.0475
20
2.3313
30
0.0
11
67.0963
21
2.2826
31
0.0
0
LINE
100
AcDbEntity
62
7
8
HANDALSTONE_pc116
100
AcDbLine
10
67.0963
20
2.2826
30
0.0
11
67.1461
21
2.2314
31
0.0
0
LINE
100
AcDbEntity
62
7
8
HANDALSTONE_pc116
100
AcDbLine
10
67.1461
20
2.2314
30
0.0
11
67.1966
21
2.1778
31
0.0
0
LINE
100
AcDbEntity
62
7
8
HANDALSTONE_pc116
100
AcDbLine
10
67.1966
20
2.1778
30
0.0
11
67.2475
21
2.1216
31
0.0
0
LINE
100
AcDbEntity
62
7
8
HANDALSTONE_pc116
100
AcDbLine
10
67.2475
20
2.1216
30
0.0
11
67.2987
21
2.0627
31
0.0
0
LINE
100
AcDbEntity
62
7
8
HANDALSTONE_pc116
100
AcDbLine
10
67.2987
20
2.0627
30
0.0
11
67.35
21
2.001
31
0.0
0
LINE
100
AcDbEntity
62
7
8
HANDALSTONE_pc116
100
AcDbLine
10
67.35
20
2.001
30
0.0
11
67.401
21
1.9365
31
0.0
0
LINE
100
AcDbEntity
62
7
8
HANDALSTONE_pc116
100
AcDbLine
10
67.401
20
1.9365
30
0.0
11
67.4516
21
1.869
31
0.0
0
LINE
100
AcDbEntity
62
7
8
HANDALSTONE_pc116
100
AcDbLine
10
67.4516
20
1.869
30
0.0
11
67.5015
21
1.7984
31
0.0
0
LINE
100
AcDbEntity
62
7
8
HANDALSTONE_pc116
100
AcDbLine
10
67.5015
20
1.7984
30
0.0
11
67.5505
21
1.7246
31
0.0
0
LINE
100
AcDbEntity
62
7
8
HANDALSTONE_pc116
100
AcDbLine
10
67.5505
20
1.7246
30
0.0
11
67.5984
21
1.6476
31
0.0
0
LINE
100
AcDbEntity
62
7
8
HANDALSTONE_pc116
100
AcDbLine
10
67.5984
20
1.6476
30
0.0
11
67.6218
21
1.6079
31
0.0
0
LINE
100
AcDbEntity
62
7
8
HANDALSTONE_pc116
100
AcDbLine
10
67.6218
20
1.6079
30
0.0
11
67.6449
21
1.5673
31
0.0
0
LINE
100
AcDbEntity
62
7
8
HANDALSTONE_pc116
100
AcDbLine
10
67.6449
20
1.5673
30
0.0
11
67.6676
21
1.5258
31
0.0
0
LINE
100
AcDbEntity
62
7
8
HANDALSTONE_pc116
100
AcDbLine
10
67.6676
20
1.5258
30
0.0
11
67.6899
21
1.4834
31
0.0
0
LINE
100
AcDbEntity
62
7
8
HANDALSTONE_pc116
100
AcDbLine
10
67.6899
20
1.4834
30
0.0
11
67.7117
21
1.4402
31
0.0
0
LINE
100
AcDbEntity
62
7
8
HANDALSTONE_pc116
100
AcDbLine
10
67.7117
20
1.4402
30
0.0
11
67.733
21
1.3961
31
0.0
0
LINE
100
AcDbEntity
62
7
8
HANDALSTONE_pc116
100
AcDbLine
10
67.733
20
1.3961
30
0.0
11
67.7539
21
1.351
31
0.0
0
LINE
100
AcDbEntity
62
7
8
HANDALSTONE_pc116
100
AcDbLine
10
67.7539
20
1.351
30
0.0
11
67.7742
21
1.305
31
0.0
0
LINE
100
AcDbEntity
62
7
8
HANDALSTONE_pc116
100
AcDbLine
10
67.7742
20
1.305
30
0.0
11
67.7939
21
1.2581
31
0.0
0
LINE
100
AcDbEntity
62
7
8
HANDALSTONE_pc116
100
AcDbLine
10
67.7939
20
1.2581
30
0.0
11
67.813
21
1.2102
31
0.0
0
LINE
100
AcDbEntity
62
7
8
HANDALSTONE_pc116
100
AcDbLine
10
67.813
20
1.2102
30
0.0
11
67.8315
21
1.1614
31
0.0
0
LINE
100
AcDbEntity
62
7
8
HANDALSTONE_pc116
100
AcDbLine
10
67.8315
20
1.1614
30
0.0
11
67.8493
21
1.1116
31
0.0
0
LINE
100
AcDbEntity
62
7
8
HANDALSTONE_pc116
100
AcDbLine
10
67.8493
20
1.1116
30
0.0
11
67.8665
21
1.0608
31
0.0
0
LINE
100
AcDbEntity
62
7
8
HANDALSTONE_pc116
100
AcDbLine
10
67.8665
20
1.0608
30
0.0
11
67.883
21
1.009
31
0.0
0
LINE
100
AcDbEntity
62
7
8
HANDALSTONE_pc116
100
AcDbLine
10
67.883
20
1.009
30
0.0
11
67.8987
21
0.9562
31
0.0
0
LINE
100
AcDbEntity
62
7
8
HANDALSTONE_pc116
100
AcDbLine
10
67.8987
20
0.9562
30
0.0
11
67.9136
21
0.9024
31
0.0
0
LINE
100
AcDbEntity
62
7
8
HANDALSTONE_pc116
100
AcDbLine
10
67.9136
20
0.9024
30
0.0
11
67.9278
21
0.8475
31
0.0
0
LINE
100
AcDbEntity
62
7
8
HANDALSTONE_pc116
100
AcDbLine
10
67.9278
20
0.8475
30
0.0
11
67.9411
21
0.7916
31
0.0
0
LINE
100
AcDbEntity
62
7
8
HANDALSTONE_pc116
100
AcDbLine
10
67.9411
20
0.7916
30
0.0
11
67.9536
21
0.7347
31
0.0
0
LINE
100
AcDbEntity
62
7
8
HANDALSTONE_pc116
100
AcDbLine
10
67.9536
20
0.7347
30
0.0
11
67.9651
21
0.6766
31
0.0
0
LINE
100
AcDbEntity
62
7
8
HANDALSTONE_pc116
100
AcDbLine
10
67.9651
20
0.6766
30
0.0
11
67.9758
21
0.6175
31
0.0
0
LINE
100
AcDbEntity
62
7
8
HANDALSTONE_pc116
100
AcDbLine
10
67.9758
20
0.6175
30
0.0
11
67.9856
21
0.5573
31
0.0
0
LINE
100
AcDbEntity
62
7
8
HANDALSTONE_pc116
100
AcDbLine
10
67.9856
20
0.5573
30
0.0
11
67.9943
21
0.496
31
0.0
0
LINE
100
AcDbEntity
62
7
8
HANDALSTONE_pc116
100
AcDbLine
10
67.9943
20
0.496
30
0.0
11
68.0021
21
0.4335
31
0.0
0
LINE
100
AcDbEntity
62
7
8
HANDALSTONE_pc116
100
AcDbLine
10
68.0021
20
0.4335
30
0.0
11
68.0088
21
0.37
31
0.0
0
LINE
100
AcDbEntity
62
7
8
HANDALSTONE_pc116
100
AcDbLine
10
68.0088
20
0.37
30
0.0
11
68.0145
21
0.3052
31
0.0
0
LINE
100
AcDbEntity
62
7
8
HANDALSTONE_pc116
100
AcDbLine
10
68.0145
20
0.3052
30
0.0
11
68.0191
21
0.2394
31
0.0
0
LINE
100
AcDbEntity
62
7
8
HANDALSTONE_pc116
100
AcDbLine
10
68.0191
20
0.2394
30
0.0
11
68.0227
21
0.1723
31
0.0
0
LINE
100
AcDbEntity
62
7
8
HANDALSTONE_pc116
100
AcDbLine
10
68.0227
20
0.1723
30
0.0
11
68.025
21
0.1041
31
0.0
0
LINE
100
AcDbEntity
62
7
8
HANDALSTONE_pc116
100
AcDbLine
10
68.025
20
0.1041
30
0.0
11
68.0262
21
0.0347
31
0.0
0
LINE
100
AcDbEntity
62
7
8
HANDALSTONE_pc116
100
AcDbLine
10
68.0262
20
0.0347
30
0.0
11
68.027
21
0.0277
31
0.0
0
LINE
100
AcDbEntity
62
7
8
HANDALSTONE_pc116
100
AcDbLine
10
68.027
20
0.0277
30
0.0
11
68.029
21
0.0212
31
0.0
0
LINE
100
AcDbEntity
62
7
8
HANDALSTONE_pc116
100
AcDbLine
10
68.029
20
0.0212
30
0.0
11
68.0323
21
0.0153
31
0.0
0
LINE
100
AcDbEntity
62
7
8
HANDALSTONE_pc116
100
AcDbLine
10
68.0323
20
0.0153
30
0.0
11
68.0366
21
0.0102
31
0.0
0
LINE
100
AcDbEntity
62
7
8
HANDALSTONE_pc116
100
AcDbLine
10
68.0366
20
0.0102
30
0.0
11
68.0417
21
0.0059
31
0.0
0
LINE
100
AcDbEntity
62
7
8
HANDALSTONE_pc116
100
AcDbLine
10
68.0417
20
0.0059
30
0.0
11
68.0477
21
0.0027
31
0.0
0
LINE
100
AcDbEntity
62
7
8
HANDALSTONE_pc116
100
AcDbLine
10
68.0477
20
0.0027
30
0.0
11
68.0542
21
0.0007
31
0.0
0
LINE
100
AcDbEntity
62
7
8
HANDALSTONE_pc116
100
AcDbLine
10
68.0542
20
0.0007
30
0.0
11
68.0612
21
0
31
0.0
0
LINE
100
AcDbEntity
62
7
8
HANDALSTONE_pc116
100
AcDbLine
10
68.0612
20
0
30
0.0
11
100.93881
21
0
31
0.0
0
LINE
100
AcDbEntity
62
7
8
HANDALSTONE_pc116
100
AcDbLine
10
100.93881
20
0
30
0.0
11
100.94581
21
0.0007
31
0.0
0
LINE
100
AcDbEntity
62
7
8
HANDALSTONE_pc116
100
AcDbLine
10
100.94581
20
0.0007
30
0.0
11
100.95231
21
0.0027
31
0.0
0
LINE
100
AcDbEntity
62
7
8
HANDALSTONE_pc116
100
AcDbLine
10
100.95231
20
0.0027
30
0.0
11
100.95831
21
0.0059
31
0.0
0
LINE
100
AcDbEntity
62
7
8
HANDALSTONE_pc116
100
AcDbLine
10
100.95831
20
0.0059
30
0.0
11
100.96341
21
0.0102
31
0.0
0
LINE
100
AcDbEntity
62
7
8
HANDALSTONE_pc116
100
AcDbLine
10
100.96341
20
0.0102
30
0.0
11
100.96771
21
0.0153
31
0.0
0
LINE
100
AcDbEntity
62
7
8
HANDALSTONE_pc116
100
AcDbLine
10
100.96771
20
0.0153
30
0.0
11
100.97101
21
0.0212
31
0.0
0
LINE
100
AcDbEntity
62
7
8
HANDALSTONE_pc116
100
AcDbLine
10
100.97101
20
0.0212
30
0.0
11
100.97301
21
0.0277
31
0.0
0
LINE
100
AcDbEntity
62
7
8
HANDALSTONE_pc116
100
AcDbLine
10
100.97301
20
0.0277
30
0.0
11
100.97381
21
0.0347
31
0.0
0
LINE
100
AcDbEntity
62
7
8
HANDALSTONE_pc116
100
AcDbLine
10
100.97381
20
0.0347
30
0.0
11
100.97501
21
0.1041
31
0.0
0
LINE
100
AcDbEntity
62
7
8
HANDALSTONE_pc116
100
AcDbLine
10
100.97501
20
0.1041
30
0.0
11
100.97731
21
0.1723
31
0.0
0
LINE
100
AcDbEntity
62
7
8
HANDALSTONE_pc116
100
AcDbLine
10
100.97731
20
0.1723
30
0.0
11
100.98091
21
0.2394
31
0.0
0
LINE
100
AcDbEntity
62
7
8
HANDALSTONE_pc116
100
AcDbLine
10
100.98091
20
0.2394
30
0.0
11
100.98551
21
0.3052
31
0.0
0
LINE
100
AcDbEntity
62
7
8
HANDALSTONE_pc116
100
AcDbLine
10
100.98551
20
0.3052
30
0.0
11
100.99121
21
0.37
31
0.0
0
LINE
100
AcDbEntity
62
7
8
HANDALSTONE_pc116
100
AcDbLine
10
100.99121
20
0.37
30
0.0
11
100.99791
21
0.4335
31
0.0
0
LINE
100
AcDbEntity
62
7
8
HANDALSTONE_pc116
100
AcDbLine
10
100.99791
20
0.4335
30
0.0
11
101.00571
21
0.496
31
0.0
0
LINE
100
AcDbEntity
62
7
8
HANDALSTONE_pc116
100
AcDbLine
10
101.00571
20
0.496
30
0.0
11
101.01441
21
0.5573
31
0.0
0
LINE
100
AcDbEntity
62
7
8
HANDALSTONE_pc116
100
AcDbLine
10
101.01441
20
0.5573
30
0.0
11
101.02421
21
0.6175
31
0.0
0
LINE
100
AcDbEntity
62
7
8
HANDALSTONE_pc116
100
AcDbLine
10
101.02421
20
0.6175
30
0.0
11
101.03491
21
0.6766
31
0.0
0
LINE
100
AcDbEntity
62
7
8
HANDALSTONE_pc116
100
AcDbLine
10
101.03491
20
0.6766
30
0.0
11
101.04641
21
0.7347
31
0.0
0
LINE
100
AcDbEntity
62
7
8
HANDALSTONE_pc116
100
AcDbLine
10
101.04641
20
0.7347
30
0.0
11
101.05891
21
0.7916
31
0.0
0
LINE
100
AcDbEntity
62
7
8
HANDALSTONE_pc116
100
AcDbLine
10
101.05891
20
0.7916
30
0.0
11
101.07221
21
0.8475
31
0.0
0
LINE
100
AcDbEntity
62
7
8
HANDALSTONE_pc116
100
AcDbLine
10
101.07221
20
0.8475
30
0.0
11
101.08641
21
0.9024
31
0.0
0
LINE
100
AcDbEntity
62
7
8
HANDALSTONE_pc116
100
AcDbLine
10
101.08641
20
0.9024
30
0.0
11
101.10131
21
0.9562
31
0.0
0
LINE
100
AcDbEntity
62
7
8
HANDALSTONE_pc116
100
AcDbLine
10
101.10131
20
0.9562
30
0.0
11
101.11701
21
1.009
31
0.0
0
LINE
100
AcDbEntity
62
7
8
HANDALSTONE_pc116
100
AcDbLine
10
101.11701
20
1.009
30
0.0
11
101.13351
21
1.0608
31
0.0
0
LINE
100
AcDbEntity
62
7
8
HANDALSTONE_pc116
100
AcDbLine
10
101.13351
20
1.0608
30
0.0
11
101.15071
21
1.1116
31
0.0
0
LINE
100
AcDbEntity
62
7
8
HANDALSTONE_pc116
100
AcDbLine
10
101.15071
20
1.1116
30
0.0
11
101.16851
21
1.1614
31
0.0
0
LINE
100
AcDbEntity
62
7
8
HANDALSTONE_pc116
100
AcDbLine
10
101.16851
20
1.1614
30
0.0
11
101.18701
21
1.2102
31
0.0
0
LINE
100
AcDbEntity
62
7
8
HANDALSTONE_pc116
100
AcDbLine
10
101.18701
20
1.2102
30
0.0
11
101.20611
21
1.2581
31
0.0
0
LINE
100
AcDbEntity
62
7
8
HANDALSTONE_pc116
100
AcDbLine
10
101.20611
20
1.2581
30
0.0
11
101.22581
21
1.305
31
0.0
0
LINE
100
AcDbEntity
62
7
8
HANDALSTONE_pc116
100
AcDbLine
10
101.22581
20
1.305
30
0.0
11
101.24611
21
1.351
31
0.0
0
LINE
100
AcDbEntity
62
7
8
HANDALSTONE_pc116
100
AcDbLine
10
101.24611
20
1.351
30
0.0
11
101.26701
21
1.3961
31
0.0
0
LINE
100
AcDbEntity
62
7
8
HANDALSTONE_pc116
100
AcDbLine
10
101.26701
20
1.3961
30
0.0
11
101.28831
21
1.4402
31
0.0
0
LINE
100
AcDbEntity
62
7
8
HANDALSTONE_pc116
100
AcDbLine
10
101.28831
20
1.4402
30
0.0
11
101.31011
21
1.4834
31
0.0
0
LINE
100
AcDbEntity
62
7
8
HANDALSTONE_pc116
100
AcDbLine
10
101.31011
20
1.4834
30
0.0
11
101.33241
21
1.5258
31
0.0
0
LINE
100
AcDbEntity
62
7
8
HANDALSTONE_pc116
100
AcDbLine
10
101.33241
20
1.5258
30
0.0
11
101.35511
21
1.5673
31
0.0
0
LINE
100
AcDbEntity
62
7
8
HANDALSTONE_pc116
100
AcDbLine
10
101.35511
20
1.5673
30
0.0
11
101.37821
21
1.6079
31
0.0
0
LINE
100
AcDbEntity
62
7
8
HANDALSTONE_pc116
100
AcDbLine
10
101.37821
20
1.6079
30
0.0
11
101.40161
21
1.6476
31
0.0
0
LINE
100
AcDbEntity
62
7
8
HANDALSTONE_pc116
100
AcDbLine
10
101.40161
20
1.6476
30
0.0
11
101.44951
21
1.7246
31
0.0
0
LINE
100
AcDbEntity
62
7
8
HANDALSTONE_pc116
100
AcDbLine
10
101.44951
20
1.7246
30
0.0
11
101.49851
21
1.7984
31
0.0
0
LINE
100
AcDbEntity
62
7
8
HANDALSTONE_pc116
100
AcDbLine
10
101.49851
20
1.7984
30
0.0
11
101.54841
21
1.869
31
0.0
0
LINE
100
AcDbEntity
62
7
8
HANDALSTONE_pc116
100
AcDbLine
10
101.54841
20
1.869
30
0.0
11
101.59901
21
1.9365
31
0.0
0
LINE
100
AcDbEntity
62
7
8
HANDALSTONE_pc116
100
AcDbLine
10
101.59901
20
1.9365
30
0.0
11
101.65001
21
2.001
31
0.0
0
LINE
100
AcDbEntity
62
7
8
HANDALSTONE_pc116
100
AcDbLine
10
101.65001
20
2.001
30
0.0
11
101.70131
21
2.0627
31
0.0
0
LINE
100
AcDbEntity
62
7
8
HANDALSTONE_pc116
100
AcDbLine
10
101.70131
20
2.0627
30
0.0
11
101.75251
21
2.1216
31
0.0
0
LINE
100
AcDbEntity
62
7
8
HANDALSTONE_pc116
100
AcDbLine
10
101.75251
20
2.1216
30
0.0
11
101.80341
21
2.1778
31
0.0
0
LINE
100
AcDbEntity
62
7
8
HANDALSTONE_pc116
100
AcDbLine
10
101.80341
20
2.1778
30
0.0
11
101.85391
21
2.2314
31
0.0
0
LINE
100
AcDbEntity
62
7
8
HANDALSTONE_pc116
100
AcDbLine
10
101.85391
20
2.2314
30
0.0
11
101.90371
21
2.2826
31
0.0
0
LINE
100
AcDbEntity
62
7
8
HANDALSTONE_pc116
100
AcDbLine
10
101.90371
20
2.2826
30
0.0
11
101.95251
21
2.3313
31
0.0
0
LINE
100
AcDbEntity
62
7
8
HANDALSTONE_pc116
100
AcDbLine
10
101.95251
20
2.3313
30
0.0
11
102.04641
21
2.4221
31
0.0
0
LINE
100
AcDbEntity
62
7
8
HANDALSTONE_pc116
100
AcDbLine
10
102.04641
20
2.4221
30
0.0
11
102.13381
21
2.5044
31
0.0
0
LINE
100
AcDbEntity
62
7
8
HANDALSTONE_pc116
100
AcDbLine
10
102.13381
20
2.5044
30
0.0
11
102.21281
21
2.5792
31
0.0
0
LINE
100
AcDbEntity
62
7
8
HANDALSTONE_pc116
100
AcDbLine
10
102.21281
20
2.5792
30
0.0
11
102.21621
21
2.583
31
0.0
0
LINE
100
AcDbEntity
62
7
8
HANDALSTONE_pc116
100
AcDbLine
10
102.21621
20
2.583
30
0.0
11
102.21861
21
2.5873
31
0.0
0
LINE
100
AcDbEntity
62
7
8
HANDALSTONE_pc116
100
AcDbLine
10
102.21861
20
2.5873
30
0.0
11
102.22001
21
2.5921
31
0.0
0
LINE
100
AcDbEntity
62
7
8
HANDALSTONE_pc116
100
AcDbLine
10
102.22001
20
2.5921
30
0.0
11
102.22051
21
2.5971
31
0.0
0
LINE
100
AcDbEntity
62
7
8
HANDALSTONE_pc116
100
AcDbLine
10
102.22051
20
2.5971
30
0.0
11
102.22051
21
4.19397
31
0.0
0
LINE
100
AcDbEntity
62
7
8
HANDALSTONE_pc116
100
AcDbLine
10
102.22051
20
4.19397
30
0.0
11
102.22151
21
4.20467
31
0.0
0
LINE
100
AcDbEntity
62
7
8
HANDALSTONE_pc116
100
AcDbLine
10
102.22151
20
4.20467
30
0.0
11
102.22371
21
4.2149
31
0.0
0
LINE
100
AcDbEntity
62
7
8
HANDALSTONE_pc116
100
AcDbLine
10
102.22371
20
4.2149
30
0.0
11
102.22701
21
4.22472
31
0.0
0
LINE
100
AcDbEntity
62
7
8
HANDALSTONE_pc116
100
AcDbLine
10
102.22701
20
4.22472
30
0.0
11
102.23161
21
4.2341
31
0.0
0
LINE
100
AcDbEntity
62
7
8
HANDALSTONE_pc116
100
AcDbLine
10
102.23161
20
4.2341
30
0.0
11
102.23751
21
4.24307
31
0.0
0
LINE
100
AcDbEntity
62
7
8
HANDALSTONE_pc116
100
AcDbLine
10
102.23751
20
4.24307
30
0.0
11
102.24471
21
4.25166
31
0.0
0
LINE
100
AcDbEntity
62
7
8
HANDALSTONE_pc116
100
AcDbLine
10
102.24471
20
4.25166
30
0.0
11
102.25331
21
4.25989
31
0.0
0
LINE
100
AcDbEntity
62
7
8
HANDALSTONE_pc116
100
AcDbLine
10
102.25331
20
4.25989
30
0.0
11
102.26331
21
4.26775
31
0.0
0
LINE
100
AcDbEntity
62
7
8
HANDALSTONE_pc116
100
AcDbLine
10
102.26331
20
4.26775
30
0.0
11
102.27481
21
4.27528
31
0.0
0
LINE
100
AcDbEntity
62
7
8
HANDALSTONE_pc116
100
AcDbLine
10
102.27481
20
4.27528
30
0.0
11
102.28781
21
4.28249
31
0.0
0
LINE
100
AcDbEntity
62
7
8
HANDALSTONE_pc116
100
AcDbLine
10
102.28781
20
4.28249
30
0.0
11
102.30241
21
4.2894
31
0.0
0
LINE
100
AcDbEntity
62
7
8
HANDALSTONE_pc116
100
AcDbLine
10
102.30241
20
4.2894
30
0.0
11
102.31861
21
4.29602
31
0.0
0
LINE
100
AcDbEntity
62
7
8
HANDALSTONE_pc116
100
AcDbLine
10
102.31861
20
4.29602
30
0.0
11
102.33651
21
4.30237
31
0.0
0
LINE
100
AcDbEntity
62
7
8
HANDALSTONE_pc116
100
AcDbLine
10
102.33651
20
4.30237
30
0.0
11
102.37751
21
4.31433
31
0.0
0
LINE
100
AcDbEntity
62
7
8
HANDALSTONE_pc116
100
AcDbLine
10
102.37751
20
4.31433
30
0.0
11
102.40951
21
4.32173
31
0.0
0
LINE
100
AcDbEntity
62
7
8
HANDALSTONE_pc116
100
AcDbLine
10
102.40951
20
4.32173
30
0.0
11
102.45051
21
4.33014
31
0.0
0
LINE
100
AcDbEntity
62
7
8
HANDALSTONE_pc116
100
AcDbLine
10
102.45051
20
4.33014
30
0.0
11
102.55691
21
4.35146
31
0.0
0
LINE
100
AcDbEntity
62
7
8
HANDALSTONE_pc116
100
AcDbLine
10
102.55691
20
4.35146
30
0.0
11
102.62121
21
4.36516
31
0.0
0
LINE
100
AcDbEntity
62
7
8
HANDALSTONE_pc116
100
AcDbLine
10
102.62121
20
4.36516
30
0.0
11
102.69211
21
4.38141
31
0.0
0
LINE
100
AcDbEntity
62
7
8
HANDALSTONE_pc116
100
AcDbLine
10
102.69211
20
4.38141
30
0.0
11
102.76891
21
4.40059
31
0.0
0
LINE
100
AcDbEntity
62
7
8
HANDALSTONE_pc116
100
AcDbLine
10
102.76891
20
4.40059
30
0.0
11
102.85121
21
4.42311
31
0.0
0
LINE
100
AcDbEntity
62
7
8
HANDALSTONE_pc116
100
AcDbLine
10
102.85121
20
4.42311
30
0.0
11
102.93811
21
4.44934
31
0.0
0
LINE
100
AcDbEntity
62
7
8
HANDALSTONE_pc116
100
AcDbLine
10
102.93811
20
4.44934
30
0.0
11
103.02931
21
4.47968
31
0.0
0
LINE
100
AcDbEntity
62
7
8
HANDALSTONE_pc116
100
AcDbLine
10
103.02931
20
4.47968
30
0.0
11
103.07631
21
4.49652
31
0.0
0
LINE
100
AcDbEntity
62
7
8
HANDALSTONE_pc116
100
AcDbLine
10
103.07631
20
4.49652
30
0.0
11
103.12411
21
4.51453
31
0.0
0
LINE
100
AcDbEntity
62
7
8
HANDALSTONE_pc116
100
AcDbLine
10
103.12411
20
4.51453
30
0.0
11
103.17261
21
4.53375
31
0.0
0
LINE
100
AcDbEntity
62
7
8
HANDALSTONE_pc116
100
AcDbLine
10
103.17261
20
4.53375
30
0.0
11
103.22181
21
4.55426
31
0.0
0
LINE
100
AcDbEntity
62
7
8
HANDALSTONE_pc116
100
AcDbLine
10
103.22181
20
4.55426
30
0.0
11
103.27161
21
4.57608
31
0.0
0
LINE
100
AcDbEntity
62
7
8
HANDALSTONE_pc116
100
AcDbLine
10
103.27161
20
4.57608
30
0.0
11
103.32191
21
4.59927
31
0.0
0
LINE
100
AcDbEntity
62
7
8
HANDALSTONE_pc116
100
AcDbLine
10
103.32191
20
4.59927
30
0.0
11
103.37261
21
4.62387
31
0.0
0
LINE
100
AcDbEntity
62
7
8
HANDALSTONE_pc116
100
AcDbLine
10
103.37261
20
4.62387
30
0.0
11
103.42381
21
4.64995
31
0.0
0
LINE
100
AcDbEntity
62
7
8
HANDALSTONE_pc116
100
AcDbLine
10
103.42381
20
4.64995
30
0.0
11
103.47521
21
4.67754
31
0.0
0
LINE
100
AcDbEntity
62
7
8
HANDALSTONE_pc116
100
AcDbLine
10
103.47521
20
4.67754
30
0.0
11
103.52681
21
4.7067
31
0.0
0
LINE
100
AcDbEntity
62
7
8
HANDALSTONE_pc116
100
AcDbLine
10
103.52681
20
4.7067
30
0.0
11
103.57861
21
4.73746
31
0.0
0
LINE
100
AcDbEntity
62
7
8
HANDALSTONE_pc116
100
AcDbLine
10
103.57861
20
4.73746
30
0.0
11
103.63041
21
4.76988
31
0.0
0
LINE
100
AcDbEntity
62
7
8
HANDALSTONE_pc116
100
AcDbLine
10
103.63041
20
4.76988
30
0.0
11
103.68231
21
4.80402
31
0.0
0
LINE
100
AcDbEntity
62
7
8
HANDALSTONE_pc116
100
AcDbLine
10
103.68231
20
4.80402
30
0.0
11
103.73401
21
4.8399
31
0.0
0
LINE
100
AcDbEntity
62
7
8
HANDALSTONE_pc116
100
AcDbLine
10
103.73401
20
4.8399
30
0.0
11
103.78561
21
4.87761
31
0.0
0
LINE
100
AcDbEntity
62
7
8
HANDALSTONE_pc116
100
AcDbLine
10
103.78561
20
4.87761
30
0.0
11
103.83701
21
4.91718
31
0.0
0
LINE
100
AcDbEntity
62
7
8
HANDALSTONE_pc116
100
AcDbLine
10
103.83701
20
4.91718
30
0.0
11
103.88811
21
4.95863
31
0.0
0
LINE
100
AcDbEntity
62
7
8
HANDALSTONE_pc116
100
AcDbLine
10
103.88811
20
4.95863
30
0.0
11
103.93881
21
5.00206
31
0.0
0
LINE
100
AcDbEntity
62
7
8
HANDALSTONE_pc116
100
AcDbLine
10
103.93881
20
5.00206
30
0.0
11
103.98901
21
5.04747
31
0.0
0
LINE
100
AcDbEntity
62
7
8
HANDALSTONE_pc116
100
AcDbLine
10
103.98901
20
5.04747
30
0.0
11
104.03871
21
5.09496
31
0.0
0
LINE
100
AcDbEntity
62
7
8
HANDALSTONE_pc116
100
AcDbLine
10
104.03871
20
5.09496
30
0.0
11
104.08781
21
5.14452
31
0.0
0
LINE
100
AcDbEntity
62
7
8
HANDALSTONE_pc116
100
AcDbLine
10
104.08781
20
5.14452
30
0.0
11
104.13621
21
5.19624
31
0.0
0
LINE
100
AcDbEntity
62
7
8
HANDALSTONE_pc116
100
AcDbLine
10
104.13621
20
5.19624
30
0.0
11
104.18391
21
5.25017
31
0.0
0
LINE
100
AcDbEntity
62
7
8
HANDALSTONE_pc116
100
AcDbLine
10
104.18391
20
5.25017
30
0.0
11
104.23071
21
5.30634
31
0.0
0
LINE
100
AcDbEntity
62
7
8
HANDALSTONE_pc116
100
AcDbLine
10
104.23071
20
5.30634
30
0.0
11
104.27661
21
5.36479
31
0.0
0
LINE
100
AcDbEntity
62
7
8
HANDALSTONE_pc116
100
AcDbLine
10
104.27661
20
5.36479
30
0.0
11
104.32161
21
5.4256
31
0.0
0
LINE
100
AcDbEntity
62
7
8
HANDALSTONE_pc116
100
AcDbLine
10
104.32161
20
5.4256
30
0.0
11
104.36541
21
5.4888
31
0.0
0
LINE
100
AcDbEntity
62
7
8
HANDALSTONE_pc116
100
AcDbLine
10
104.36541
20
5.4888
30
0.0
11
104.40821
21
5.55444
31
0.0
0
LINE
100
AcDbEntity
62
7
8
HANDALSTONE_pc116
100
AcDbLine
10
104.40821
20
5.55444
30
0.0
11
104.44981
21
5.62257
31
0.0
0
LINE
100
AcDbEntity
62
7
8
HANDALSTONE_pc116
100
AcDbLine
10
104.44981
20
5.62257
30
0.0
11
104.49001
21
5.69324
31
0.0
0
LINE
100
AcDbEntity
62
7
8
HANDALSTONE_pc116
100
AcDbLine
10
104.49001
20
5.69324
30
0.0
11
104.52891
21
5.76651
31
0.0
0
LINE
100
AcDbEntity
62
7
8
HANDALSTONE_pc116
100
AcDbLine
10
104.52891
20
5.76651
30
0.0
11
104.56641
21
5.84241
31
0.0
0
LINE
100
AcDbEntity
62
7
8
HANDALSTONE_pc116
100
AcDbLine
10
104.56641
20
5.84241
30
0.0
11
104.60241
21
5.92097
31
0.0
0
LINE
100
AcDbEntity
62
7
8
HANDALSTONE_pc116
100
AcDbLine
10
104.60241
20
5.92097
30
0.0
11
104.63681
21
6.0023
31
0.0
0
LINE
100
AcDbEntity
62
7
8
HANDALSTONE_pc116
100
AcDbLine
10
104.63681
20
6.0023
30
0.0
11
104.66961
21
6.0864
31
0.0
0
LINE
100
AcDbEntity
62
7
8
HANDALSTONE_pc116
100
AcDbLine
10
104.66961
20
6.0864
30
0.0
11
104.70061
21
6.17332
31
0.0
0
LINE
100
AcDbEntity
62
7
8
HANDALSTONE_pc116
100
AcDbLine
10
104.70061
20
6.17332
30
0.0
11
104.72981
21
6.26314
31
0.0
0
LINE
100
AcDbEntity
62
7
8
HANDALSTONE_pc116
100
AcDbLine
10
104.72981
20
6.26314
30
0.0
11
104.75711
21
6.35588
31
0.0
0
LINE
100
AcDbEntity
62
7
8
HANDALSTONE_pc116
100
AcDbLine
10
104.75711
20
6.35588
30
0.0
11
104.78251
21
6.4516
31
0.0
0
LINE
100
AcDbEntity
62
7
8
HANDALSTONE_pc116
100
AcDbLine
10
104.78251
20
6.4516
30
0.0
11
104.80581
21
6.55035
31
0.0
0
LINE
100
AcDbEntity
62
7
8
HANDALSTONE_pc116
100
AcDbLine
10
104.80581
20
6.55035
30
0.0
11
104.82711
21
6.65218
31
0.0
0
LINE
100
AcDbEntity
62
7
8
HANDALSTONE_pc116
100
AcDbLine
10
104.82711
20
6.65218
30
0.0
11
104.84611
21
6.75713
31
0.0
0
LINE
100
AcDbEntity
62
7
8
HANDALSTONE_pc116
100
AcDbLine
10
104.84611
20
6.75713
30
0.0
11
104.86291
21
6.86525
31
0.0
0
LINE
100
AcDbEntity
62
7
8
HANDALSTONE_pc116
100
AcDbLine
10
104.86291
20
6.86525
30
0.0
11
104.88981
21
7.07179
31
0.0
0
LINE
100
AcDbEntity
62
7
8
HANDALSTONE_pc116
100
AcDbLine
10
104.88981
20
7.07179
30
0.0
11
104.90421
21
7.16486
31
0.0
0
LINE
100
AcDbEntity
62
7
8
HANDALSTONE_pc116
100
AcDbLine
10
104.90421
20
7.16486
30
0.0
11
104.92061
21
7.25578
31
0.0
0
LINE
100
AcDbEntity
62
7
8
HANDALSTONE_pc116
100
AcDbLine
10
104.92061
20
7.25578
30
0.0
11
104.93901
21
7.3446
31
0.0
0
LINE
100
AcDbEntity
62
7
8
HANDALSTONE_pc116
100
AcDbLine
10
104.93901
20
7.3446
30
0.0
11
104.95931
21
7.43134
31
0.0
0
LINE
100
AcDbEntity
62
7
8
HANDALSTONE_pc116
100
AcDbLine
10
104.95931
20
7.43134
30
0.0
11
104.98151
21
7.51601
31
0.0
0
LINE
100
AcDbEntity
62
7
8
HANDALSTONE_pc116
100
AcDbLine
10
104.98151
20
7.51601
30
0.0
11
105.00541
21
7.59863
31
0.0
0
LINE
100
AcDbEntity
62
7
8
HANDALSTONE_pc116
100
AcDbLine
10
105.00541
20
7.59863
30
0.0
11
105.03101
21
7.67924
31
0.0
0
LINE
100
AcDbEntity
62
7
8
HANDALSTONE_pc116
100
AcDbLine
10
105.03101
20
7.67924
30
0.0
11
105.05831
21
7.75787
31
0.0
0
LINE
100
AcDbEntity
62
7
8
HANDALSTONE_pc116
100
AcDbLine
10
105.05831
20
7.75787
30
0.0
11
105.08731
21
7.8345
31
0.0
0
LINE
100
AcDbEntity
62
7
8
HANDALSTONE_pc116
100
AcDbLine
10
105.08731
20
7.8345
30
0.0
11
105.11781
21
7.90919
31
0.0
0
LINE
100
AcDbEntity
62
7
8
HANDALSTONE_pc116
100
AcDbLine
10
105.11781
20
7.90919
30
0.0
11
105.14981
21
7.98195
31
0.0
0
LINE
100
AcDbEntity
62
7
8
HANDALSTONE_pc116
100
AcDbLine
10
105.14981
20
7.98195
30
0.0
11
105.18321
21
8.0528
31
0.0
0
LINE
100
AcDbEntity
62
7
8
HANDALSTONE_pc116
100
AcDbLine
10
105.18321
20
8.0528
30
0.0
11
105.21801
21
8.12175
31
0.0
0
LINE
100
AcDbEntity
62
7
8
HANDALSTONE_pc116
100
AcDbLine
10
105.21801
20
8.12175
30
0.0
11
105.25421
21
8.18884
31
0.0
0
LINE
100
AcDbEntity
62
7
8
HANDALSTONE_pc116
100
AcDbLine
10
105.25421
20
8.18884
30
0.0
11
105.29171
21
8.25409
31
0.0
0
LINE
100
AcDbEntity
62
7
8
HANDALSTONE_pc116
100
AcDbLine
10
105.29171
20
8.25409
30
0.0
11
105.33031
21
8.31752
31
0.0
0
LINE
100
AcDbEntity
62
7
8
HANDALSTONE_pc116
100
AcDbLine
10
105.33031
20
8.31752
30
0.0
11
105.37021
21
8.37915
31
0.0
0
LINE
100
AcDbEntity
62
7
8
HANDALSTONE_pc116
100
AcDbLine
10
105.37021
20
8.37915
30
0.0
11
105.41111
21
8.43901
31
0.0
0
LINE
100
AcDbEntity
62
7
8
HANDALSTONE_pc116
100
AcDbLine
10
105.41111
20
8.43901
30
0.0
11
105.45311
21
8.4971
31
0.0
0
LINE
100
AcDbEntity
62
7
8
HANDALSTONE_pc116
100
AcDbLine
10
105.45311
20
8.4971
30
0.0
11
105.49611
21
8.55347
31
0.0
0
LINE
100
AcDbEntity
62
7
8
HANDALSTONE_pc116
100
AcDbLine
10
105.49611
20
8.55347
30
0.0
11
105.54011
21
8.60812
31
0.0
0
LINE
100
AcDbEntity
62
7
8
HANDALSTONE_pc116
100
AcDbLine
10
105.54011
20
8.60812
30
0.0
11
105.58491
21
8.66109
31
0.0
0
LINE
100
AcDbEntity
62
7
8
HANDALSTONE_pc116
100
AcDbLine
10
105.58491
20
8.66109
30
0.0
11
105.63061
21
8.71239
31
0.0
0
LINE
100
AcDbEntity
62
7
8
HANDALSTONE_pc116
100
AcDbLine
10
105.63061
20
8.71239
30
0.0
11
105.67701
21
8.76204
31
0.0
0
LINE
100
AcDbEntity
62
7
8
HANDALSTONE_pc116
100
AcDbLine
10
105.67701
20
8.76204
30
0.0
11
105.72421
21
8.81006
31
0.0
0
LINE
100
AcDbEntity
62
7
8
HANDALSTONE_pc116
100
AcDbLine
10
105.72421
20
8.81006
30
0.0
11
105.77201
21
8.85649
31
0.0
0
LINE
100
AcDbEntity
62
7
8
HANDALSTONE_pc116
100
AcDbLine
10
105.77201
20
8.85649
30
0.0
11
105.82051
21
8.90134
31
0.0
0
LINE
100
AcDbEntity
62
7
8
HANDALSTONE_pc116
100
AcDbLine
10
105.82051
20
8.90134
30
0.0
11
105.86951
21
8.94463
31
0.0
0
LINE
100
AcDbEntity
62
7
8
HANDALSTONE_pc116
100
AcDbLine
10
105.86951
20
8.94463
30
0.0
11
105.91891
21
8.98637
31
0.0
0
LINE
100
AcDbEntity
62
7
8
HANDALSTONE_pc116
100
AcDbLine
10
105.91891
20
8.98637
30
0.0
11
105.96891
21
9.02663
31
0.0
0
LINE
100
AcDbEntity
62
7
8
HANDALSTONE_pc116
100
AcDbLine
10
105.96891
20
9.02663
30
0.0
11
106.01921
21
9.06537
31
0.0
0
LINE
100
AcDbEntity
62
7
8
HANDALSTONE_pc116
100
AcDbLine
10
106.01921
20
9.06537
30
0.0
11
106.06981
21
9.10265
31
0.0
0
LINE
100
AcDbEntity
62
7
8
HANDALSTONE_pc116
100
AcDbLine
10
106.06981
20
9.10265
30
0.0
11
106.12071
21
9.13849
31
0.0
0
LINE
100
AcDbEntity
62
7
8
HANDALSTONE_pc116
100
AcDbLine
10
106.12071
20
9.13849
30
0.0
11
106.17181
21
9.1729
31
0.0
0
LINE
100
AcDbEntity
62
7
8
HANDALSTONE_pc116
100
AcDbLine
10
106.17181
20
9.1729
30
0.0
11
106.22311
21
9.2059
31
0.0
0
LINE
100
AcDbEntity
62
7
8
HANDALSTONE_pc116
100
AcDbLine
10
106.22311
20
9.2059
30
0.0
11
106.27441
21
9.23752
31
0.0
0
LINE
100
AcDbEntity
62
7
8
HANDALSTONE_pc116
100
AcDbLine
10
106.27441
20
9.23752
30
0.0
11
106.32581
21
9.26778
31
0.0
0
LINE
100
AcDbEntity
62
7
8
HANDALSTONE_pc116
100
AcDbLine
10
106.32581
20
9.26778
30
0.0
11
106.37731
21
9.29671
31
0.0
0
LINE
100
AcDbEntity
62
7
8
HANDALSTONE_pc116
100
AcDbLine
10
106.37731
20
9.29671
30
0.0
11
106.42861
21
9.32433
31
0.0
0
LINE
100
AcDbEntity
62
7
8
HANDALSTONE_pc116
100
AcDbLine
10
106.42861
20
9.32433
30
0.0
11
106.47981
21
9.35063
31
0.0
0
LINE
100
AcDbEntity
62
7
8
HANDALSTONE_pc116
100
AcDbLine
10
106.47981
20
9.35063
30
0.0
11
106.53091
21
9.37569
31
0.0
0
LINE
100
AcDbEntity
62
7
8
HANDALSTONE_pc116
100
AcDbLine
10
106.53091
20
9.37569
30
0.0
11
106.58171
21
9.39948
31
0.0
0
LINE
100
AcDbEntity
62
7
8
HANDALSTONE_pc116
100
AcDbLine
10
106.58171
20
9.39948
30
0.0
11
106.63221
21
9.42204
31
0.0
0
LINE
100
AcDbEntity
62
7
8
HANDALSTONE_pc116
100
AcDbLine
10
106.63221
20
9.42204
30
0.0
11
106.68241
21
9.44341
31
0.0
0
LINE
100
AcDbEntity
62
7
8
HANDALSTONE_pc116
100
AcDbLine
10
106.68241
20
9.44341
30
0.0
11
106.73211
21
9.46359
31
0.0
0
LINE
100
AcDbEntity
62
7
8
HANDALSTONE_pc116
100
AcDbLine
10
106.73211
20
9.46359
30
0.0
11
106.78141
21
9.4826
31
0.0
0
LINE
100
AcDbEntity
62
7
8
HANDALSTONE_pc116
100
AcDbLine
10
106.78141
20
9.4826
30
0.0
11
106.83021
21
9.50049
31
0.0
0
LINE
100
AcDbEntity
62
7
8
HANDALSTONE_pc116
100
AcDbLine
10
106.83021
20
9.50049
30
0.0
11
106.87851
21
9.51726
31
0.0
0
LINE
100
AcDbEntity
62
7
8
HANDALSTONE_pc116
100
AcDbLine
10
106.87851
20
9.51726
30
0.0
11
106.92611
21
9.53291
31
0.0
0
LINE
100
AcDbEntity
62
7
8
HANDALSTONE_pc116
100
AcDbLine
10
106.92611
20
9.53291
30
0.0
11
106.97301
21
9.54752
31
0.0
0
LINE
100
AcDbEntity
62
7
8
HANDALSTONE_pc116
100
AcDbLine
10
106.97301
20
9.54752
30
0.0
11
107.01921
21
9.56105
31
0.0
0
LINE
100
AcDbEntity
62
7
8
HANDALSTONE_pc116
100
AcDbLine
10
107.01921
20
9.56105
30
0.0
11
107.06451
21
9.57356
31
0.0
0
LINE
100
AcDbEntity
62
7
8
HANDALSTONE_pc116
100
AcDbLine
10
107.06451
20
9.57356
30
0.0
11
107.10911
21
9.58507
31
0.0
0
LINE
100
AcDbEntity
62
7
8
HANDALSTONE_pc116
100
AcDbLine
10
107.10911
20
9.58507
30
0.0
11
107.19541
21
9.60515
31
0.0
0
LINE
100
AcDbEntity
62
7
8
HANDALSTONE_pc116
100
AcDbLine
10
107.19541
20
9.60515
30
0.0
11
107.27761
21
9.62146
31
0.0
0
LINE
100
AcDbEntity
62
7
8
HANDALSTONE_pc116
100
AcDbLine
10
107.27761
20
9.62146
30
0.0
11
107.35531
21
9.63417
31
0.0
0
LINE
100
AcDbEntity
62
7
8
HANDALSTONE_pc116
100
AcDbLine
10
107.35531
20
9.63417
30
0.0
11
107.42801
21
9.64348
31
0.0
0
LINE
100
AcDbEntity
62
7
8
HANDALSTONE_pc116
100
AcDbLine
10
107.42801
20
9.64348
30
0.0
11
107.49531
21
9.64954
31
0.0
0
LINE
100
AcDbEntity
62
7
8
HANDALSTONE_pc116
100
AcDbLine
10
107.49531
20
9.64954
30
0.0
11
107.50291
21
9.65065
31
0.0
0
LINE
100
AcDbEntity
62
7
8
HANDALSTONE_pc116
100
AcDbLine
10
107.50291
20
9.65065
30
0.0
11
107.51071
21
9.65289
31
0.0
0
LINE
100
AcDbEntity
62
7
8
HANDALSTONE_pc116
100
AcDbLine
10
107.51071
20
9.65289
30
0.0
11
107.51861
21
9.65614
31
0.0
0
LINE
100
AcDbEntity
62
7
8
HANDALSTONE_pc116
100
AcDbLine
10
107.51861
20
9.65614
30
0.0
11
107.52661
21
9.66035
31
0.0
0
LINE
100
AcDbEntity
62
7
8
HANDALSTONE_pc116
100
AcDbLine
10
107.52661
20
9.66035
30
0.0
11
107.54231
21
9.67126
31
0.0
0
LINE
100
AcDbEntity
62
7
8
HANDALSTONE_pc116
100
AcDbLine
10
107.54231
20
9.67126
30
0.0
11
107.55751
21
9.68492
31
0.0
0
LINE
100
AcDbEntity
62
7
8
HANDALSTONE_pc116
100
AcDbLine
10
107.55751
20
9.68492
30
0.0
11
107.57131
21
9.70064
31
0.0
0
LINE
100
AcDbEntity
62
7
8
HANDALSTONE_pc116
100
AcDbLine
10
107.57131
20
9.70064
30
0.0
11
107.58351
21
9.71773
31
0.0
0
LINE
100
AcDbEntity
62
7
8
HANDALSTONE_pc116
100
AcDbLine
10
107.58351
20
9.71773
30
0.0
11
107.59321
21
9.73549
31
0.0
0
LINE
100
AcDbEntity
62
7
8
HANDALSTONE_pc116
100
AcDbLine
10
107.59321
20
9.73549
30
0.0
11
107.60021
21
9.75325
31
0.0
0
LINE
100
AcDbEntity
62
7
8
HANDALSTONE_pc116
100
AcDbLine
10
107.60021
20
9.75325
30
0.0
11
108.50001
21
12.24999
31
0.0
0
LINE
100
AcDbEntity
62
7
8
HANDALSTONE_pc116
100
AcDbLine
10
108.50001
20
12.24999
30
0.0
11
108.50061
21
12.32741
31
0.0
0
LINE
100
AcDbEntity
62
7
8
HANDALSTONE_pc116
100
AcDbLine
10
108.50061
20
12.32741
30
0.0
11
108.50251
21
12.40435
31
0.0
0
LINE
100
AcDbEntity
62
7
8
HANDALSTONE_pc116
100
AcDbLine
10
108.50251
20
12.40435
30
0.0
11
108.50561
21
12.48078
31
0.0
0
LINE
100
AcDbEntity
62
7
8
HANDALSTONE_pc116
100
AcDbLine
10
108.50561
20
12.48078
30
0.0
11
108.50991
21
12.55669
31
0.0
0
LINE
100
AcDbEntity
62
7
8
HANDALSTONE_pc116
100
AcDbLine
10
108.50991
20
12.55669
30
0.0
11
108.51541
21
12.63202
31
0.0
0
LINE
100
AcDbEntity
62
7
8
HANDALSTONE_pc116
100
AcDbLine
10
108.51541
20
12.63202
30
0.0
11
108.52221
21
12.70679
31
0.0
0
LINE
100
AcDbEntity
62
7
8
HANDALSTONE_pc116
100
AcDbLine
10
108.52221
20
12.70679
30
0.0
11
108.53021
21
12.78097
31
0.0
0
LINE
100
AcDbEntity
62
7
8
HANDALSTONE_pc116
100
AcDbLine
10
108.53021
20
12.78097
30
0.0
11
108.53951
21
12.85451
31
0.0
0
LINE
100
AcDbEntity
62
7
8
HANDALSTONE_pc116
100
AcDbLine
10
108.53951
20
12.85451
30
0.0
11
108.54991
21
12.9274
31
0.0
0
LINE
100
AcDbEntity
62
7
8
HANDALSTONE_pc116
100
AcDbLine
10
108.54991
20
12.9274
30
0.0
11
108.56161
21
12.99964
31
0.0
0
LINE
100
AcDbEntity
62
7
8
HANDALSTONE_pc116
100
AcDbLine
10
108.56161
20
12.99964
30
0.0
11
108.57461
21
13.07117
31
0.0
0
LINE
100
AcDbEntity
62
7
8
HANDALSTONE_pc116
100
AcDbLine
10
108.57461
20
13.07117
30
0.0
11
108.58871
21
13.14199
31
0.0
0
LINE
100
AcDbEntity
62
7
8
HANDALSTONE_pc116
100
AcDbLine
10
108.58871
20
13.14199
30
0.0
11
108.60411
21
13.21207
31
0.0
0
LINE
100
AcDbEntity
62
7
8
HANDALSTONE_pc116
100
AcDbLine
10
108.60411
20
13.21207
30
0.0
11
108.62081
21
13.28138
31
0.0
0
LINE
100
AcDbEntity
62
7
8
HANDALSTONE_pc116
100
AcDbLine
10
108.62081
20
13.28138
30
0.0
11
108.63861
21
13.34989
31
0.0
0
LINE
100
AcDbEntity
62
7
8
HANDALSTONE_pc116
100
AcDbLine
10
108.63861
20
13.34989
30
0.0
11
108.65771
21
13.41761
31
0.0
0
LINE
100
AcDbEntity
62
7
8
HANDALSTONE_pc116
100
AcDbLine
10
108.65771
20
13.41761
30
0.0
11
108.67791
21
13.48447
31
0.0
0
LINE
100
AcDbEntity
62
7
8
HANDALSTONE_pc116
100
AcDbLine
10
108.67791
20
13.48447
30
0.0
11
108.69951
21
13.5505
31
0.0
0
LINE
100
AcDbEntity
62
7
8
HANDALSTONE_pc116
100
AcDbLine
10
108.69951
20
13.5505
30
0.0
11
108.72221
21
13.61562
31
0.0
0
LINE
100
AcDbEntity
62
7
8
HANDALSTONE_pc116
100
AcDbLine
10
108.72221
20
13.61562
30
0.0
11
108.74621
21
13.67985
31
0.0
0
LINE
100
AcDbEntity
62
7
8
HANDALSTONE_pc116
100
AcDbLine
10
108.74621
20
13.67985
30
0.0
11
108.77131
21
13.74314
31
0.0
0
LINE
100
AcDbEntity
62
7
8
HANDALSTONE_pc116
100
AcDbLine
10
108.77131
20
13.74314
30
0.0
11
108.79771
21
13.80548
31
0.0
0
LINE
100
AcDbEntity
62
7
8
HANDALSTONE_pc116
100
AcDbLine
10
108.79771
20
13.80548
30
0.0
11
108.82541
21
13.86683
31
0.0
0
LINE
100
AcDbEntity
62
7
8
HANDALSTONE_pc116
100
AcDbLine
10
108.82541
20
13.86683
30
0.0
11
108.85421
21
13.9272
31
0.0
0
LINE
100
AcDbEntity
62
7
8
HANDALSTONE_pc116
100
AcDbLine
10
108.85421
20
13.9272
30
0.0
11
108.88431
21
13.98654
31
0.0
0
LINE
100
AcDbEntity
62
7
8
HANDALSTONE_pc116
100
AcDbLine
10
108.88431
20
13.98654
30
0.0
11
108.91561
21
14.04483
31
0.0
0
LINE
100
AcDbEntity
62
7
8
HANDALSTONE_pc116
100
AcDbLine
10
108.91561
20
14.04483
30
0.0
11
108.94811
21
14.10203
31
0.0
0
LINE
100
AcDbEntity
62
7
8
HANDALSTONE_pc116
100
AcDbLine
10
108.94811
20
14.10203
30
0.0
11
108.98181
21
14.15815
31
0.0
0
LINE
100
AcDbEntity
62
7
8
HANDALSTONE_pc116
100
AcDbLine
10
108.98181
20
14.15815
30
0.0
11
109.01671
21
14.21316
31
0.0
0
LINE
100
AcDbEntity
62
7
8
HANDALSTONE_pc116
100
AcDbLine
10
109.01671
20
14.21316
30
0.0
11
109.05281
21
14.26701
31
0.0
0
LINE
100
AcDbEntity
62
7
8
HANDALSTONE_pc116
100
AcDbLine
10
109.05281
20
14.26701
30
0.0
11
109.09021
21
14.31971
31
0.0
0
LINE
100
AcDbEntity
62
7
8
HANDALSTONE_pc116
100
AcDbLine
10
109.09021
20
14.31971
30
0.0
11
109.12881
21
14.37121
31
0.0
0
LINE
100
AcDbEntity
62
7
8
HANDALSTONE_pc116
100
AcDbLine
10
109.12881
20
14.37121
30
0.0
11
109.16861
21
14.4215
31
0.0
0
LINE
100
AcDbEntity
62
7
8
HANDALSTONE_pc116
100
AcDbLine
10
109.16861
20
14.4215
30
0.0
11
109.20961
21
14.47055
31
0.0
0
LINE
100
AcDbEntity
62
7
8
HANDALSTONE_pc116
100
AcDbLine
10
109.20961
20
14.47055
30
0.0
11
109.25181
21
14.51834
31
0.0
0
LINE
100
AcDbEntity
62
7
8
HANDALSTONE_pc116
100
AcDbLine
10
109.25181
20
14.51834
30
0.0
11
109.29521
21
14.56484
31
0.0
0
LINE
100
AcDbEntity
62
7
8
HANDALSTONE_pc116
100
AcDbLine
10
109.29521
20
14.56484
30
0.0
11
109.33981
21
14.61006
31
0.0
0
LINE
100
AcDbEntity
62
7
8
HANDALSTONE_pc116
100
AcDbLine
10
109.33981
20
14.61006
30
0.0
11
109.38571
21
14.65393
31
0.0
0
LINE
100
AcDbEntity
62
7
8
HANDALSTONE_pc116
100
AcDbLine
10
109.38571
20
14.65393
30
0.0
11
109.43271
21
14.69644
31
0.0
0
LINE
100
AcDbEntity
62
7
8
HANDALSTONE_pc116
100
AcDbLine
10
109.43271
20
14.69644
30
0.0
11
109.48101
21
14.73757
31
0.0
0
LINE
100
AcDbEntity
62
7
8
HANDALSTONE_pc116
100
AcDbLine
10
109.48101
20
14.73757
30
0.0
11
109.53051
21
14.77731
31
0.0
0
LINE
100
AcDbEntity
62
7
8
HANDALSTONE_pc116
100
AcDbLine
10
109.53051
20
14.77731
30
0.0
11
109.58111
21
14.81561
31
0.0
0
LINE
100
AcDbEntity
62
7
8
HANDALSTONE_pc116
100
AcDbLine
10
109.58111
20
14.81561
30
0.0
11
109.63301
21
14.85247
31
0.0
0
LINE
100
AcDbEntity
62
7
8
HANDALSTONE_pc116
100
AcDbLine
10
109.63301
20
14.85247
30
0.0
11
109.68611
21
14.88786
31
0.0
0
LINE
100
AcDbEntity
62
7
8
HANDALSTONE_pc116
100
AcDbLine
10
109.68611
20
14.88786
30
0.0
11
109.74041
21
14.92175
31
0.0
0
LINE
100
AcDbEntity
62
7
8
HANDALSTONE_pc116
100
AcDbLine
10
109.74041
20
14.92175
30
0.0
11
109.79591
21
14.95411
31
0.0
0
LINE
100
AcDbEntity
62
7
8
HANDALSTONE_pc116
100
AcDbLine
10
109.79591
20
14.95411
30
0.0
11
109.85261
21
14.98493
31
0.0
0
LINE
100
AcDbEntity
62
7
8
HANDALSTONE_pc116
100
AcDbLine
10
109.85261
20
14.98493
30
0.0
11
109.91051
21
15.0142
31
0.0
0
LINE
100
AcDbEntity
62
7
8
HANDALSTONE_pc116
100
AcDbLine
10
109.91051
20
15.0142
30
0.0
11
109.96961
21
15.04186
31
0.0
0
LINE
100
AcDbEntity
62
7
8
HANDALSTONE_pc116
100
AcDbLine
10
109.96961
20
15.04186
30
0.0
11
110.02991
21
15.06793
31
0.0
0
LINE
100
AcDbEntity
62
7
8
HANDALSTONE_pc116
100
AcDbLine
10
110.02991
20
15.06793
30
0.0
11
110.09141
21
15.09234
31
0.0
0
LINE
100
AcDbEntity
62
7
8
HANDALSTONE_pc116
100
AcDbLine
10
110.09141
20
15.09234
30
0.0
11
110.15411
21
15.11509
31
0.0
0
LINE
100
AcDbEntity
62
7
8
HANDALSTONE_pc116
100
AcDbLine
10
110.15411
20
15.11509
30
0.0
11
110.21801
21
15.13616
31
0.0
0
LINE
100
AcDbEntity
62
7
8
HANDALSTONE_pc116
100
AcDbLine
10
110.21801
20
15.13616
30
0.0
11
110.28311
21
15.15553
31
0.0
0
LINE
100
AcDbEntity
62
7
8
HANDALSTONE_pc116
100
AcDbLine
10
110.28311
20
15.15553
30
0.0
11
110.34951
21
15.17317
31
0.0
0
LINE
100
AcDbEntity
62
7
8
HANDALSTONE_pc116
100
AcDbLine
10
110.34951
20
15.17317
30
0.0
11
110.41701
21
15.18904
31
0.0
0
LINE
100
AcDbEntity
62
7
8
HANDALSTONE_pc116
100
AcDbLine
10
110.41701
20
15.18904
30
0.0
11
110.48571
21
15.20313
31
0.0
0
LINE
100
AcDbEntity
62
7
8
HANDALSTONE_pc116
100
AcDbLine
10
110.48571
20
15.20313
30
0.0
11
110.55561
21
15.21542
31
0.0
0
LINE
100
AcDbEntity
62
7
8
HANDALSTONE_pc116
100
AcDbLine
10
110.55561
20
15.21542
30
0.0
11
110.62661
21
15.22589
31
0.0
0
LINE
100
AcDbEntity
62
7
8
HANDALSTONE_pc116
100
AcDbLine
10
110.62661
20
15.22589
30
0.0
11
110.69891
21
15.23451
31
0.0
0
LINE
100
AcDbEntity
62
7
8
HANDALSTONE_pc116
100
AcDbLine
10
110.69891
20
15.23451
30
0.0
11
110.77241
21
15.24125
31
0.0
0
LINE
100
AcDbEntity
62
7
8
HANDALSTONE_pc116
100
AcDbLine
10
110.77241
20
15.24125
30
0.0
11
110.84711
21
15.24609
31
0.0
0
LINE
100
AcDbEntity
62
7
8
HANDALSTONE_pc116
100
AcDbLine
10
110.84711
20
15.24609
30
0.0
11
110.92291
21
15.24902
31
0.0
0
LINE
100
AcDbEntity
62
7
8
HANDALSTONE_pc116
100
AcDbLine
10
110.92291
20
15.24902
30
0.0
11
111.00001
21
15.24999
31
0.0
0
LINE
100
AcDbEntity
62
7
8
HANDALSTONE_pc116
100
AcDbLine
10
111.00001
20
15.24999
30
0.0
11
111.00001
21
18.24999
31
0.0
0
LINE
100
AcDbEntity
62
7
8
HANDALSTONE_pc116
100
AcDbLine
10
111.00001
20
18.24999
30
0.0
11
84.50001
21
25.25001
31
0.0
0
LINE
100
AcDbEntity
62
7
8
HANDALSTONE_pc116
100
AcDbLine
10
84.50001
20
25.25001
30
0.0
11
58
21
18.24999
31
0.0
0
LINE
100
AcDbEntity
62
7
8
HANDALSTONE_pc116
100
AcDbLine
10
58
20
18.24999
30
0.0
11
58
21
15.24999
31
0.0
0
TEXT
100
AcDbEntity
8
HANDALSTONE_pc116
100
AcDbText
10
58.0
20
-3
30
0
1
PC116 Right
40
2
0
TEXT
100
AcDbEntity
8
HANDALSTONE_pc116
100
AcDbText
10
58.0
20
-5.25
30
0
1
(53" x 25.25")
40
1.5
0
ENDSEC
0
SECTION
2
OBJECTS
0
ENDSEC
0
EOF